  0
SECTION
  2
HEADER
  9
$ACADVER
  1
AC1015
  9
$ACADMAINTVER
 70
    20
  9
$DWGCODEPAGE
  3
ANSI_1252
  9
$INSBASE
 10
0.0
 20
0.0
 30
0.0
  9
$EXTMIN
 10
-11.05295338465268
 20
-12.48511918451248
 30
-0.0015258207003583
  9
$EXTMAX
 10
40.9977331809167
 20
54.88052005828774
 30
0.0000000349246037
  9
$LIMMIN
 10
0.0
 20
0.0
  9
$LIMMAX
 10
12.0
 20
9.0
  9
$ORTHOMODE
 70
     0
  9
$REGENMODE
 70
     1
  9
$FILLMODE
 70
     1
  9
$QTEXTMODE
 70
     0
  9
$MIRRTEXT
 70
     1
  9
$LTSCALE
 40
1.0
  9
$ATTMODE
 70
     1
  9
$TEXTSIZE
 40
0.5
  9
$TRACEWID
 40
0.05
  9
$TEXTSTYLE
  7
STANDARD
  9
$CLAYER
  8
0
  9
$CELTYPE
  6
ByLayer
  9
$CECOLOR
 62
   256
  9
$CELTSCALE
 40
1.0
  9
$DISPSILH
 70
     0
  9
$DIMSCALE
 40
1.0
  9
$DIMASZ
 40
0.75
  9
$DIMEXO
 40
0.3
  9
$DIMDLI
 40
1.5
  9
$DIMRND
 40
0.0
  9
$DIMDLE
 40
0.0
  9
$DIMEXE
 40
0.75
  9
$DIMTP
 40
0.0
  9
$DIMTM
 40
0.0
  9
$DIMTXT
 40
0.75
  9
$DIMCEN
 40
0.36
  9
$DIMTSZ
 40
0.0
  9
$DIMTOL
 70
     0
  9
$DIMLIM
 70
     0
  9
$DIMTIH
 70
     1
  9
$DIMTOH
 70
     1
  9
$DIMSE1
 70
     0
  9
$DIMSE2
 70
     0
  9
$DIMTAD
 70
     0
  9
$DIMZIN
 70
     0
  9
$DIMBLK
  1

  9
$DIMASO
 70
     1
  9
$DIMSHO
 70
     1
  9
$DIMPOST
  1

  9
$DIMAPOST
  1

  9
$DIMALT
 70
     0
  9
$DIMALTD
 70
     2
  9
$DIMALTF
 40
25.4
  9
$DIMLFAC
 40
1.0
  9
$DIMTOFL
 70
     0
  9
$DIMTVP
 40
0.0
  9
$DIMTIX
 70
     0
  9
$DIMSOXD
 70
     0
  9
$DIMSAH
 70
     0
  9
$DIMBLK1
  1

  9
$DIMBLK2
  1

  9
$DIMSTYLE
  2
STANDARD
  9
$DIMCLRD
 70
     0
  9
$DIMCLRE
 70
     0
  9
$DIMCLRT
 70
     0
  9
$DIMTFAC
 40
1.0
  9
$DIMGAP
 40
0.36
  9
$DIMJUST
 70
     0
  9
$DIMSD1
 70
     0
  9
$DIMSD2
 70
     0
  9
$DIMTOLJ
 70
     1
  9
$DIMTZIN
 70
     0
  9
$DIMALTZ
 70
     0
  9
$DIMALTTZ
 70
     0
  9
$DIMUPT
 70
     0
  9
$DIMDEC
 70
     4
  9
$DIMTDEC
 70
     4
  9
$DIMALTU
 70
     2
  9
$DIMALTTD
 70
     2
  9
$DIMTXSTY
  7
STANDARD
  9
$DIMAUNIT
 70
     0
  9
$DIMADEC
 70
     0
  9
$DIMALTRND
 40
0.0
  9
$DIMAZIN
 70
     0
  9
$DIMDSEP
 70
    46
  9
$DIMATFIT
 70
     3
  9
$DIMFRAC
 70
     0
  9
$DIMLDRBLK
  1

  9
$DIMLUNIT
 70
     2
  9
$DIMLWD
 70
    -2
  9
$DIMLWE
 70
    -2
  9
$DIMTMOVE
 70
     0
  9
$LUNITS
 70
     2
  9
$LUPREC
 70
     4
  9
$SKETCHINC
 40
0.1
  9
$FILLETRAD
 40
0.5
  9
$AUNITS
 70
     0
  9
$AUPREC
 70
     0
  9
$MENU
  1
.
  9
$ELEVATION
 40
0.0
  9
$PELEVATION
 40
0.0
  9
$THICKNESS
 40
0.0
  9
$LIMCHECK
 70
     0
  9
$CHAMFERA
 40
0.5
  9
$CHAMFERB
 40
0.5
  9
$CHAMFERC
 40
0.0
  9
$CHAMFERD
 40
0.0
  9
$SKPOLY
 70
     0
  9
$TDCREATE
 40
2452965.387499537
  9
$TDUCREATE
 40
2452965.595832870
  9
$TDUPDATE
 40
2453440.677034989
  9
$TDUUPDATE
 40
2453440.885368322
  9
$TDINDWG
 40
0.1052739699
  9
$TDUSRTIMER
 40
0.1052372222
  9
$USRTIMER
 70
     1
  9
$ANGBASE
 50
0.0
  9
$ANGDIR
 70
     0
  9
$PDMODE
 70
     0
  9
$PDSIZE
 40
0.0
  9
$PLINEWID
 40
0.0
  9
$SPLFRAME
 70
     0
  9
$SPLINETYPE
 70
     6
  9
$SPLINESEGS
 70
     8
  9
$HANDSEED
  5
D71
  9
$SURFTAB1
 70
     6
  9
$SURFTAB2
 70
     6
  9
$SURFTYPE
 70
     6
  9
$SURFU
 70
     6
  9
$SURFV
 70
     6
  9
$UCSBASE
  2

  9
$UCSNAME
  2

  9
$UCSORG
 10
0.0
 20
0.0
 30
0.0
  9
$UCSXDIR
 10
1.0
 20
0.0
 30
0.0
  9
$UCSYDIR
 10
0.0
 20
1.0
 30
0.0
  9
$UCSORTHOREF
  2

  9
$UCSORTHOVIEW
 70
     0
  9
$UCSORGTOP
 10
0.0
 20
0.0
 30
0.0
  9
$UCSORGBOTTOM
 10
0.0
 20
0.0
 30
0.0
  9
$UCSORGLEFT
 10
0.0
 20
0.0
 30
0.0
  9
$UCSORGRIGHT
 10
0.0
 20
0.0
 30
0.0
  9
$UCSORGFRONT
 10
0.0
 20
0.0
 30
0.0
  9
$UCSORGBACK
 10
0.0
 20
0.0
 30
0.0
  9
$PUCSBASE
  2

  9
$PUCSNAME
  2

  9
$PUCSORG
 10
0.0
 20
0.0
 30
0.0
  9
$PUCSXDIR
 10
1.0
 20
0.0
 30
0.0
  9
$PUCSYDIR
 10
0.0
 20
1.0
 30
0.0
  9
$PUCSORTHOREF
  2

  9
$PUCSORTHOVIEW
 70
     0
  9
$PUCSORGTOP
 10
0.0
 20
0.0
 30
0.0
  9
$PUCSORGBOTTOM
 10
0.0
 20
0.0
 30
0.0
  9
$PUCSORGLEFT
 10
0.0
 20
0.0
 30
0.0
  9
$PUCSORGRIGHT
 10
0.0
 20
0.0
 30
0.0
  9
$PUCSORGFRONT
 10
0.0
 20
0.0
 30
0.0
  9
$PUCSORGBACK
 10
0.0
 20
0.0
 30
0.0
  9
$USERI1
 70
     0
  9
$USERI2
 70
     0
  9
$USERI3
 70
     0
  9
$USERI4
 70
     0
  9
$USERI5
 70
     0
  9
$USERR1
 40
0.0
  9
$USERR2
 40
0.0
  9
$USERR3
 40
0.0
  9
$USERR4
 40
0.0
  9
$USERR5
 40
0.0
  9
$WORLDVIEW
 70
     1
  9
$SHADEDGE
 70
     3
  9
$SHADEDIF
 70
    70
  9
$TILEMODE
 70
     1
  9
$MAXACTVP
 70
    64
  9
$PINSBASE
 10
0.0
 20
0.0
 30
0.0
  9
$PLIMCHECK
 70
     0
  9
$PEXTMIN
 10
1.000000000000000E+20
 20
1.000000000000000E+20
 30
1.000000000000000E+20
  9
$PEXTMAX
 10
-1.000000000000000E+20
 20
-1.000000000000000E+20
 30
-1.000000000000000E+20
  9
$PLIMMIN
 10
0.0
 20
0.0
  9
$PLIMMAX
 10
12.0
 20
9.0
  9
$UNITMODE
 70
     0
  9
$VISRETAIN
 70
     1
  9
$PLINEGEN
 70
     0
  9
$PSLTSCALE
 70
     1
  9
$TREEDEPTH
 70
  3020
  9
$CMLSTYLE
  2
Standard
  9
$CMLJUST
 70
     0
  9
$CMLSCALE
 40
1.0
  9
$PROXYGRAPHICS
 70
     1
  9
$MEASUREMENT
 70
     0
  9
$CELWEIGHT
370
    -1
  9
$ENDCAPS
280
     0
  9
$JOINSTYLE
280
     0
  9
$LWDISPLAY
290
     0
  9
$INSUNITS
 70
     0
  9
$HYPERLINKBASE
  1

  9
$STYLESHEET
  1

  9
$XEDIT
290
     1
  9
$CEPSNTYPE
380
     0
  9
$PSTYLEMODE
290
     1
  9
$FINGERPRINTGUID
  2
{294CF7F9-37F0-4C5A-8296-2EE2EE9500F4}
  9
$VERSIONGUID
  2
{9C9A30BF-3775-4531-86F7-D70D122DE5D4}
  9
$EXTNAMES
290
     1
  9
$PSVPSCALE
 40
0.0
  9
$OLESTARTUP
290
     0
  0
ENDSEC
  0
SECTION
  2
CLASSES
  0
CLASS
  1
ACDBDICTIONARYWDFLT
  2
AcDbDictionaryWithDefault
  3
ObjectDBX Classes
 90
        0
280
     0
281
     0
  0
CLASS
  1
DICTIONARYVAR
  2
AcDbDictionaryVar
  3
ObjectDBX Classes
 90
        0
280
     0
281
     0
  0
CLASS
  1
ACDBPLACEHOLDER
  2
AcDbPlaceHolder
  3
ObjectDBX Classes
 90
        0
280
     0
281
     0
  0
CLASS
  1
LAYOUT
  2
AcDbLayout
  3
ObjectDBX Classes
 90
        0
280
     0
281
     0
  0
ENDSEC
  0
SECTION
  2
TABLES
  0
TABLE
  2
VPORT
  5
C88
330
0
100
AcDbSymbolTable
 70
     5
  0
VPORT
  5
D69
330
C88
100
AcDbSymbolTableRecord
100
AcDbViewportTableRecord
  2
*Active
 70
     0
 10
0.0
 20
0.0
 11
1.0
 21
1.0
 12
25.10921261962265
 22
24.33985727998333
 13
0.0
 23
0.0
 14
0.5
 24
0.5
 15
0.5
 25
0.5
 16
0.0
 26
0.0
 36
1.0
 17
0.0
 27
0.0
 37
0.0
 40
57.81420505474859
 41
1.444308445532435
 42
50.0
 43
0.0
 44
0.0
 50
0.0
 51
0.0
 71
     0
 72
   100
 73
     1
 74
     3
 75
     0
 76
     0
 77
     0
 78
     0
281
     0
 65
     1
110
0.0
120
0.0
130
0.0
111
1.0
121
0.0
131
0.0
112
0.0
122
1.0
132
0.0
 79
     0
146
0.0
  0
ENDTAB
  0
TABLE
  2
LTYPE
  5
C85
330
0
100
AcDbSymbolTable
 70
     3
  0
LTYPE
  5
C93
330
C85
100
AcDbSymbolTableRecord
100
AcDbLinetypeTableRecord
  2
ByBlock
 70
     0
  3

 72
    65
 73
     0
 40
0.0
  0
LTYPE
  5
C94
330
C85
100
AcDbSymbolTableRecord
100
AcDbLinetypeTableRecord
  2
ByLayer
 70
     0
  3

 72
    65
 73
     0
 40
0.0
  0
LTYPE
  5
C95
330
C85
100
AcDbSymbolTableRecord
100
AcDbLinetypeTableRecord
  2
CONTINUOUS
 70
     0
  3
Solid line
 72
    65
 73
     0
 40
0.0
  0
LTYPE
  5
CA5
330
C85
100
AcDbSymbolTableRecord
100
AcDbLinetypeTableRecord
  2
CENTER
 70
     0
  3
Center ____ _ ____ _ ____ _ ____ _ ____ _ ____
 72
    65
 73
     4
 40
2.0
 49
1.25
 74
     0
 49
-0.25
 74
     0
 49
0.25
 74
     0
 49
-0.25
 74
     0
  0
LTYPE
  5
CA6
330
C85
100
AcDbSymbolTableRecord
100
AcDbLinetypeTableRecord
  2
HIDDEN
 70
     0
  3
Hidden __ __ __ __ __ __ __ __ __ __ __ __ __ _
 72
    65
 73
     2
 40
0.375
 49
0.25
 74
     0
 49
-0.125
 74
     0
  0
ENDTAB
  0
TABLE
  2
LAYER
  5
C82
330
0
100
AcDbSymbolTable
 70
     4
  0
LAYER
  5
C90
330
C82
100
AcDbSymbolTableRecord
100
AcDbLayerTableRecord
  2
0
 70
     0
 62
     7
  6
CONTINUOUS
370
    -3
390
C8F
  0
LAYER
  5
CA7
330
C82
100
AcDbSymbolTableRecord
100
AcDbLayerTableRecord
  2
DIMENSIONS
 70
     0
 62
     1
  6
CONTINUOUS
370
    -3
390
C8F
  0
LAYER
  5
CA8
330
C82
100
AcDbSymbolTableRecord
100
AcDbLayerTableRecord
  2
DEFPOINTS
 70
     0
 62
     7
  6
CONTINUOUS
290
     0
370
    -3
390
C8F
  0
LAYER
  5
CA9
330
C82
100
AcDbSymbolTableRecord
100
AcDbLayerTableRecord
  2
TITLEBLOCK_NOTES
 70
     0
 62
     3
  6
CONTINUOUS
370
    -3
390
C8F
  0
ENDTAB
  0
TABLE
  2
STYLE
  5
C83
330
0
100
AcDbSymbolTable
 70
     2
  0
STYLE
  5
C91
330
C83
100
AcDbSymbolTableRecord
100
AcDbTextStyleTableRecord
  2
STANDARD
 70
     0
 40
0.0
 41
1.0
 50
0.0
 71
     0
 42
0.5
  3
txt
  4

  0
STYLE
  5
CAA
330
C83
100
AcDbSymbolTableRecord
100
AcDbTextStyleTableRecord
  2

 70
     1
 40
0.0
 41
1.0
 50
0.0
 71
     0
 42
0.5
  3
ltypeshp.shx
  4

  0
ENDTAB
  0
TABLE
  2
VIEW
  5
C86
330
0
100
AcDbSymbolTable
 70
     0
  0
ENDTAB
  0
TABLE
  2
UCS
  5
C87
330
0
100
AcDbSymbolTable
 70
     0
  0
ENDTAB
  0
TABLE
  2
APPID
  5
C89
330
0
100
AcDbSymbolTable
 70
     2
  0
APPID
  5
C92
330
C89
100
AcDbSymbolTableRecord
100
AcDbRegAppTableRecord
  2
ACAD
 70
     0
  0
APPID
  5
CAB
330
C89
100
AcDbSymbolTableRecord
100
AcDbRegAppTableRecord
  2
DCO15
 70
     0
  0
ENDTAB
  0
TABLE
  2
DIMSTYLE
  5
C8A
330
0
100
AcDbSymbolTable
 70
     1
100
AcDbDimStyleTable
 71
     0
  0
DIMSTYLE
105
CAC
330
C8A
100
AcDbSymbolTableRecord
100
AcDbDimStyleTableRecord
  2
STANDARD
 70
     0
279
     2
340
C91
  0
ENDTAB
  0
TABLE
  2
BLOCK_RECORD
  5
C81
330
0
100
AcDbSymbolTable
 70
    30
  0
BLOCK_RECORD
  5
CA0
330
C81
100
AcDbSymbolTableRecord
100
AcDbBlockTableRecord
  2
*Model_Space
340
CA3
  0
BLOCK_RECORD
  5
C9C
330
C81
100
AcDbSymbolTableRecord
100
AcDbBlockTableRecord
  2
*Paper_Space
340
C9F
  0
BLOCK_RECORD
  5
CAF
330
C81
100
AcDbSymbolTableRecord
100
AcDbBlockTableRecord
  2
$MODEL_SPACE
340
0
  0
BLOCK_RECORD
  5
CB1
330
C81
100
AcDbSymbolTableRecord
100
AcDbBlockTableRecord
  2
$PAPER_SPACE
340
0
  0
BLOCK_RECORD
  5
CB3
330
C81
100
AcDbSymbolTableRecord
100
AcDbBlockTableRecord
  2
*D2
340
0
  0
BLOCK_RECORD
  5
CB5
330
C81
100
AcDbSymbolTableRecord
100
AcDbBlockTableRecord
  2
*U3
340
0
102
{BLKREFS
331
196
102
}
  0
BLOCK_RECORD
  5
CB6
330
C81
100
AcDbSymbolTableRecord
100
AcDbBlockTableRecord
  2
*D4
340
0
  0
BLOCK_RECORD
  5
CB8
330
C81
100
AcDbSymbolTableRecord
100
AcDbBlockTableRecord
  2
*U5
340
0
102
{BLKREFS
331
182
102
}
  0
BLOCK_RECORD
  5
CB9
330
C81
100
AcDbSymbolTableRecord
100
AcDbBlockTableRecord
  2
*D6
340
0
  0
BLOCK_RECORD
  5
CBB
330
C81
100
AcDbSymbolTableRecord
100
AcDbBlockTableRecord
  2
*U7
340
0
102
{BLKREFS
331
1AB
102
}
  0
BLOCK_RECORD
  5
CBC
330
C81
100
AcDbSymbolTableRecord
100
AcDbBlockTableRecord
  2
*D8
340
0
  0
BLOCK_RECORD
  5
CBE
330
C81
100
AcDbSymbolTableRecord
100
AcDbBlockTableRecord
  2
*U9
340
0
102
{BLKREFS
331
1A1
102
}
  0
BLOCK_RECORD
  5
CBF
330
C81
100
AcDbSymbolTableRecord
100
AcDbBlockTableRecord
  2
*D10
340
0
  0
BLOCK_RECORD
  5
CC1
330
C81
100
AcDbSymbolTableRecord
100
AcDbBlockTableRecord
  2
*U11
340
0
102
{BLKREFS
331
178
102
}
  0
BLOCK_RECORD
  5
CC2
330
C81
100
AcDbSymbolTableRecord
100
AcDbBlockTableRecord
  2
*D12
340
0
  0
BLOCK_RECORD
  5
CC4
330
C81
100
AcDbSymbolTableRecord
100
AcDbBlockTableRecord
  2
*U13
340
0
102
{BLKREFS
331
18C
102
}
  0
BLOCK_RECORD
  5
CC5
330
C81
100
AcDbSymbolTableRecord
100
AcDbBlockTableRecord
  2
*D14
340
0
  0
BLOCK_RECORD
  5
CC7
330
C81
100
AcDbSymbolTableRecord
100
AcDbBlockTableRecord
  2
*U15
340
0
102
{BLKREFS
331
1B7
102
}
  0
BLOCK_RECORD
  5
CC8
330
C81
100
AcDbSymbolTableRecord
100
AcDbBlockTableRecord
  2
*D16
340
0
  0
BLOCK_RECORD
  5
CCA
330
C81
100
AcDbSymbolTableRecord
100
AcDbBlockTableRecord
  2
*U17
340
0
102
{BLKREFS
331
1C5
102
}
  0
BLOCK_RECORD
  5
CCB
330
C81
100
AcDbSymbolTableRecord
100
AcDbBlockTableRecord
  2
*D18
340
0
  0
BLOCK_RECORD
  5
CCD
330
C81
100
AcDbSymbolTableRecord
100
AcDbBlockTableRecord
  2
*U19
340
0
102
{BLKREFS
331
1D3
102
}
  0
BLOCK_RECORD
  5
CCE
330
C81
100
AcDbSymbolTableRecord
100
AcDbBlockTableRecord
  2
*D20
340
0
  0
BLOCK_RECORD
  5
CD0
330
C81
100
AcDbSymbolTableRecord
100
AcDbBlockTableRecord
  2
*U21
340
0
102
{BLKREFS
331
1E1
102
}
  0
BLOCK_RECORD
  5
CD1
330
C81
100
AcDbSymbolTableRecord
100
AcDbBlockTableRecord
  2
*D22
340
0
  0
BLOCK_RECORD
  5
CD3
330
C81
100
AcDbSymbolTableRecord
100
AcDbBlockTableRecord
  2
*U23
340
0
102
{BLKREFS
331
1EF
102
}
  0
BLOCK_RECORD
  5
CD4
330
C81
100
AcDbSymbolTableRecord
100
AcDbBlockTableRecord
  2
*U24
340
0
  0
BLOCK_RECORD
  5
CD6
330
C81
100
AcDbSymbolTableRecord
100
AcDbBlockTableRecord
  2
*U25
340
0
102
{BLKREFS
331
151
102
}
  0
BLOCK_RECORD
  5
CD8
330
C81
100
AcDbSymbolTableRecord
100
AcDbBlockTableRecord
  2
*U26
340
0
102
{BLKREFS
331
159
102
}
  0
BLOCK_RECORD
  5
CDA
330
C81
100
AcDbSymbolTableRecord
100
AcDbBlockTableRecord
  2
*U27
340
0
  0
BLOCK_RECORD
  5
CE7
330
C81
100
AcDbSymbolTableRecord
100
AcDbBlockTableRecord
  2
*U28
340
0
  0
BLOCK_RECORD
  5
CE9
330
C81
100
AcDbSymbolTableRecord
100
AcDbBlockTableRecord
  2
*U29
340
0
  0
ENDTAB
  0
ENDSEC
  0
SECTION
  2
BLOCKS
  0
BLOCK
  5
CA1
330
CA0
100
AcDbEntity
  8
0
100
AcDbBlockBegin
  2
*Model_Space
 70
     0
 10
0.0
 20
0.0
 30
0.0
  3
*Model_Space
  1

  0
ENDBLK
  5
CA2
330
CA0
100
AcDbEntity
  8
0
100
AcDbBlockEnd
  0
BLOCK
  5
C9D
330
C9C
100
AcDbEntity
 67
     1
  8
0
100
AcDbBlockBegin
  2
*Paper_Space
 70
     0
 10
0.0
 20
0.0
 30
0.0
  3
*Paper_Space
  1

  0
ENDBLK
  5
C9E
330
C9C
100
AcDbEntity
 67
     1
  8
0
100
AcDbBlockEnd
  0
BLOCK
  5
CB0
330
CAF
100
AcDbEntity
  8
0
100
AcDbBlockBegin
  2
$MODEL_SPACE
 70
     0
 10
0.0
 20
0.0
 30
0.0
  3
$MODEL_SPACE
  1

  0
ENDBLK
  5
21
330
CAF
100
AcDbEntity
  8
0
100
AcDbBlockEnd
  0
BLOCK
  5
CB2
330
CB1
100
AcDbEntity
  8
0
100
AcDbBlockBegin
  2
$PAPER_SPACE
 70
     0
 10
0.0
 20
0.0
 30
0.0
  3
$PAPER_SPACE
  1

  0
ENDBLK
  5
1D
330
CB1
100
AcDbEntity
  8
0
100
AcDbBlockEnd
  0
BLOCK
  5
CB4
330
CB3
100
AcDbEntity
  8
0
100
AcDbBlockBegin
  2
*D2
 70
     1
 10
0.0
 20
0.0
 30
0.0
  3
*D2
  1

  0
LINE
  5
190
330
CB3
100
AcDbEntity
  8
0
 62
     0
100
AcDbLine
 10
10.67096329980894
 20
15.93883778511746
 30
0.0
 11
2.952414092627694
 21
15.93883778511746
 31
0.0
  0
LINE
  5
191
330
CB3
100
AcDbEntity
  8
0
 62
     0
100
AcDbLine
 10
6.670963299808944
 20
18.49883778511745
 30
0.0
 11
2.952414092627694
 21
18.49883778511745
 31
0.0
  0
LINE
  5
192
330
CB3
100
AcDbEntity
  8
0
 62
     0
100
AcDbLine
 10
3.702414092627694
 20
15.18883778511746
 30
0.0
 11
3.702414092627692
 21
14.43883778511746
 31
0.0
  0
LINE
  5
193
330
CB3
100
AcDbEntity
  8
0
 62
     0
100
AcDbLine
 10
3.702414092627694
 20
19.24883778511745
 30
0.0
 11
3.702414092627694
 21
19.99883778511745
 31
0.0
  0
SOLID
  5
194
330
CB3
100
AcDbEntity
  8
0
 62
     0
100
AcDbTrace
 10
3.577414092627694
 20
15.18883778511746
 30
0.0
 11
3.827414092627694
 21
15.18883778511746
 31
0.0
 12
3.702414092627694
 22
15.93883778511746
 32
0.0
 13
3.702414092627694
 23
15.93883778511746
 33
0.0
  0
SOLID
  5
195
330
CB3
100
AcDbEntity
  8
0
 62
     0
100
AcDbTrace
 10
3.577414092627694
 20
19.24883778511745
 30
0.0
 11
3.827414092627694
 21
19.24883778511745
 31
0.0
 12
3.702414092627694
 22
18.49883778511745
 32
0.0
 13
3.702414092627694
 23
18.49883778511745
 33
0.0
  0
INSERT
  5
196
330
CB3
100
AcDbEntity
  8
0
100
AcDbBlockReference
  2
*U3
 10
0.0
 20
0.0
 30
0.0
  0
POINT
  5
197
330
CB3
100
AcDbEntity
  8
DEFPOINTS
 62
     0
100
AcDbPoint
 10
10.97096329980894
 20
15.93883778511746
 30
0.0
  0
POINT
  5
198
330
CB3
100
AcDbEntity
  8
DEFPOINTS
 62
     0
100
AcDbPoint
 10
6.970963299808943
 20
18.49883778511745
 30
0.0
  0
POINT
  5
199
330
CB3
100
AcDbEntity
  8
DEFPOINTS
 62
     0
100
AcDbPoint
 10
3.702414092627694
 20
18.49883778511745
 30
0.0
  0
ENDBLK
  5
10C
330
CB3
100
AcDbEntity
  8
0
100
AcDbBlockEnd
  0
BLOCK
  5
CDF
330
CB5
100
AcDbEntity
  8
0
100
AcDbBlockBegin
  2
*U3
 70
     1
 10
0.0
 20
0.0
 30
0.0
  3
*U3
  1

  0
TEXT
  5
C55
330
CB5
100
AcDbEntity
  8
0
 62
     0
100
AcDbText
 10
3.45241409262769
 20
16.87979852623671
 30
0.0
 40
0.75
  1
J
100
AcDbText
  0
ENDBLK
  5
C57
330
CB5
100
AcDbEntity
  8
0
100
AcDbBlockEnd
  0
BLOCK
  5
CB7
330
CB6
100
AcDbEntity
  8
0
100
AcDbBlockBegin
  2
*D4
 70
     1
 10
0.0
 20
0.0
 30
0.0
  3
*D4
  1

  0
LINE
  5
17C
330
CB6
100
AcDbEntity
  8
0
 62
     0
100
AcDbLine
 10
10.97096329980894
 20
15.63883778511746
 30
0.0
 11
10.97096329980894
 21
12.59513769107795
 31
0.0
  0
LINE
  5
17D
330
CB6
100
AcDbEntity
  8
0
 62
     0
100
AcDbLine
 10
12.97096329980894
 20
15.63883778511746
 30
0.0
 11
12.97096329980894
 21
12.59513769107795
 31
0.0
  0
LINE
  5
17E
330
CB6
100
AcDbEntity
  8
0
 62
     0
100
AcDbLine
 10
10.22096329980894
 20
13.34513769107795
 30
0.0
 11
9.470963299808943
 21
13.34513769107795
 31
0.0
  0
LINE
  5
17F
330
CB6
100
AcDbEntity
  8
0
 62
     0
100
AcDbLine
 10
13.72096329980894
 20
13.34513769107795
 30
0.0
 11
14.47096329980894
 21
13.34513769107795
 31
0.0
  0
SOLID
  5
180
330
CB6
100
AcDbEntity
  8
0
 62
     0
100
AcDbTrace
 10
10.22096329980894
 20
13.47013769107795
 30
0.0
 11
10.22096329980894
 21
13.22013769107795
 31
0.0
 12
10.97096329980894
 22
13.34513769107795
 32
0.0
 13
10.97096329980894
 23
13.34513769107795
 33
0.0
  0
SOLID
  5
181
330
CB6
100
AcDbEntity
  8
0
 62
     0
100
AcDbTrace
 10
13.72096329980894
 20
13.47013769107795
 30
0.0
 11
13.72096329980894
 21
13.22013769107795
 31
0.0
 12
12.97096329980894
 22
13.34513769107795
 32
0.0
 13
12.97096329980894
 23
13.34513769107795
 33
0.0
  0
INSERT
  5
182
330
CB6
100
AcDbEntity
  8
0
100
AcDbBlockReference
  2
*U5
 10
0.0
 20
0.0
 30
0.0
  0
POINT
  5
183
330
CB6
100
AcDbEntity
  8
DEFPOINTS
 62
     0
100
AcDbPoint
 10
10.97096329980894
 20
15.93883778511746
 30
0.0
  0
POINT
  5
184
330
CB6
100
AcDbEntity
  8
DEFPOINTS
 62
     0
100
AcDbPoint
 10
12.97096329980894
 20
15.93883778511746
 30
0.0
  0
POINT
  5
185
330
CB6
100
AcDbEntity
  8
DEFPOINTS
 62
     0
100
AcDbPoint
 10
12.97096329980894
 20
13.34513769107795
 30
0.0
  0
ENDBLK
  5
11A
330
CB6
100
AcDbEntity
  8
0
100
AcDbBlockEnd
  0
BLOCK
  5
CDD
330
CB8
100
AcDbEntity
  8
0
100
AcDbBlockBegin
  2
*U5
 70
     1
 10
0.0
 20
0.0
 30
0.0
  3
*U5
  1

  0
TEXT
  5
C4D
330
CB8
100
AcDbEntity
  8
0
 62
     0
100
AcDbText
 10
11.84596329980894
 20
12.97013769107795
 30
0.0
 40
0.75
  1
I
100
AcDbText
  0
ENDBLK
  5
C4F
330
CB8
100
AcDbEntity
  8
0
100
AcDbBlockEnd
  0
BLOCK
  5
CBA
330
CB9
100
AcDbEntity
  8
0
100
AcDbBlockBegin
  2
*D6
 70
     1
 10
0.0
 20
0.0
 30
0.0
  3
*D6
  1

  0
LINE
  5
1A5
330
CB9
100
AcDbEntity
  8
0
 62
     0
100
AcDbLine
 10
17.27096329980893
 20
20.49883778511745
 30
0.0
 11
20.25012405788653
 21
20.49883778511745
 31
0.0
  0
LINE
  5
1A6
330
CB9
100
AcDbEntity
  8
0
 62
     0
100
AcDbLine
 10
17.27096329980893
 20
18.49883778511745
 30
0.0
 11
20.25012405788653
 21
18.49883778511745
 31
0.0
  0
LINE
  5
1A7
330
CB9
100
AcDbEntity
  8
0
 62
     0
100
AcDbLine
 10
19.50012405788653
 20
21.24883778511745
 30
0.0
 11
19.50012405788653
 21
21.99883778511745
 31
0.0
  0
LINE
  5
1A8
330
CB9
100
AcDbEntity
  8
0
 62
     0
100
AcDbLine
 10
19.50012405788653
 20
17.74883778511746
 30
0.0
 11
19.50012405788653
 21
16.99883778511746
 31
0.0
  0
SOLID
  5
1A9
330
CB9
100
AcDbEntity
  8
0
 62
     0
100
AcDbTrace
 10
19.37512405788653
 20
21.24883778511745
 30
0.0
 11
19.62512405788652
 21
21.24883778511745
 31
0.0
 12
19.50012405788653
 22
20.49883778511745
 32
0.0
 13
19.50012405788653
 23
20.49883778511745
 33
0.0
  0
SOLID
  5
1AA
330
CB9
100
AcDbEntity
  8
0
 62
     0
100
AcDbTrace
 10
19.37512405788653
 20
17.74883778511746
 30
0.0
 11
19.62512405788652
 21
17.74883778511746
 31
0.0
 12
19.50012405788653
 22
18.49883778511745
 32
0.0
 13
19.50012405788653
 23
18.49883778511745
 33
0.0
  0
INSERT
  5
1AB
330
CB9
100
AcDbEntity
  8
0
100
AcDbBlockReference
  2
*U7
 10
0.0
 20
0.0
 30
0.0
  0
POINT
  5
1AC
330
CB9
100
AcDbEntity
  8
DEFPOINTS
 62
     0
100
AcDbPoint
 10
16.97096329980894
 20
20.49883778511745
 30
0.0
  0
POINT
  5
1AD
330
CB9
100
AcDbEntity
  8
DEFPOINTS
 62
     0
100
AcDbPoint
 10
16.97096329980894
 20
18.49883778511745
 30
0.0
  0
POINT
  5
1AE
330
CB9
100
AcDbEntity
  8
DEFPOINTS
 62
     0
100
AcDbPoint
 10
19.50012405788653
 20
18.49883778511745
 30
0.0
  0
ENDBLK
  5
128
330
CB9
100
AcDbEntity
  8
0
100
AcDbBlockEnd
  0
BLOCK
  5
CE1
330
CBB
100
AcDbEntity
  8
0
100
AcDbBlockBegin
  2
*U7
 70
     1
 10
0.0
 20
0.0
 30
0.0
  3
*U7
  1

  0
TEXT
  5
C5D
330
CBB
100
AcDbEntity
  8
0
 62
     0
100
AcDbText
 10
19.25012405788652
 20
19.12383778511745
 30
0.0
 40
0.75
  1
K
100
AcDbText
  0
ENDBLK
  5
C5F
330
CBB
100
AcDbEntity
  8
0
100
AcDbBlockEnd
  0
BLOCK
  5
CBD
330
CBC
100
AcDbEntity
  8
0
100
AcDbBlockBegin
  2
*D8
 70
     1
 10
0.0
 20
0.0
 30
0.0
  3
*D8
  1

  0
LINE
  5
19A
330
CBC
100
AcDbEntity
  8
0
 62
     0
100
AcDbLine
 10
14.27096329980894
 20
17.74883778511746
 30
0.0
 11
23.76502769323155
 21
17.74883778511746
 31
0.0
  0
LINE
  5
19B
330
CBC
100
AcDbEntity
  8
0
 62
     0
100
AcDbLine
 10
17.27096329980893
 20
18.49883778511745
 30
0.0
 11
23.76502769323155
 21
18.49883778511745
 31
0.0
  0
LINE
  5
19C
330
CBC
100
AcDbEntity
  8
0
 62
     0
100
AcDbLine
 10
23.01502769323155
 20
16.99883778511746
 30
0.0
 11
23.01502769323155
 21
16.24883778511746
 31
0.0
  0
LINE
  5
19D
330
CBC
100
AcDbEntity
  8
0
 62
     0
100
AcDbLine
 10
23.01502769323155
 20
19.24883778511745
 30
0.0
 11
23.01502769323155
 21
20.03652681123957
 31
0.0
  0
LINE
  5
19E
330
CBC
100
AcDbEntity
  8
0
 62
     0
100
AcDbLine
 10
23.01502769323155
 20
20.03652681123957
 30
0.0
 11
23.76502769323155
 21
20.03652681123957
 31
0.0
  0
SOLID
  5
19F
330
CBC
100
AcDbEntity
  8
0
 62
     0
100
AcDbTrace
 10
22.89002769323155
 20
16.99883778511746
 30
0.0
 11
23.14002769323155
 21
16.99883778511746
 31
0.0
 12
23.01502769323155
 22
17.74883778511746
 32
0.0
 13
23.01502769323155
 23
17.74883778511746
 33
0.0
  0
SOLID
  5
1A0
330
CBC
100
AcDbEntity
  8
0
 62
     0
100
AcDbTrace
 10
22.89002769323155
 20
19.24883778511745
 30
0.0
 11
23.14002769323155
 21
19.24883778511745
 31
0.0
 12
23.01502769323155
 22
18.49883778511745
 32
0.0
 13
23.01502769323155
 23
18.49883778511745
 33
0.0
  0
INSERT
  5
1A1
330
CBC
100
AcDbEntity
  8
0
100
AcDbBlockReference
  2
*U9
 10
0.0
 20
0.0
 30
0.0
  0
POINT
  5
1A2
330
CBC
100
AcDbEntity
  8
DEFPOINTS
 62
     0
100
AcDbPoint
 10
13.97096329980894
 20
17.74883778511746
 30
0.0
  0
POINT
  5
1A3
330
CBC
100
AcDbEntity
  8
DEFPOINTS
 62
     0
100
AcDbPoint
 10
16.97096329980894
 20
18.49883778511745
 30
0.0
  0
POINT
  5
1A4
330
CBC
100
AcDbEntity
  8
DEFPOINTS
 62
     0
100
AcDbPoint
 10
23.01502769323155
 20
18.49883778511745
 30
0.0
  0
ENDBLK
  5
137
330
CBC
100
AcDbEntity
  8
0
100
AcDbBlockEnd
  0
BLOCK
  5
CE0
330
CBE
100
AcDbEntity
  8
0
100
AcDbBlockBegin
  2
*U9
 70
     1
 10
0.0
 20
0.0
 30
0.0
  3
*U9
  1

  0
TEXT
  5
C59
330
CBE
100
AcDbEntity
  8
0
 62
     0
100
AcDbText
 10
24.12502769323154
 20
19.66152681123957
 30
0.0
 40
0.75
  1
L
100
AcDbText
  0
ENDBLK
  5
C5B
330
CBE
100
AcDbEntity
  8
0
100
AcDbBlockEnd
  0
BLOCK
  5
CC0
330
CBF
100
AcDbEntity
  8
0
100
AcDbBlockBegin
  2
*D10
 70
     1
 10
0.0
 20
0.0
 30
0.0
  3
*D10
  1

  0
LINE
  5
172
330
CBF
100
AcDbEntity
  8
0
 62
     0
100
AcDbLine
 10
13.27096329980894
 20
15.93883778511746
 30
0.0
 11
26.17261723862836
 21
15.93883778511746
 31
0.0
  0
LINE
  5
173
330
CBF
100
AcDbEntity
  8
0
 62
     0
100
AcDbLine
 10
15.52096329980894
 20
50.93883778511746
 30
0.0
 11
26.17261723862837
 21
50.93883778511745
 31
0.0
  0
LINE
  5
174
330
CBF
100
AcDbEntity
  8
0
 62
     0
100
AcDbLine
 10
25.42261723862836
 20
16.68883778511746
 30
0.0
 11
25.42261723862837
 21
33.92371597620491
 31
0.0
  0
LINE
  5
175
330
CBF
100
AcDbEntity
  8
0
 62
     0
100
AcDbLine
 10
25.42261723862837
 20
50.18883778511746
 30
0.0
 11
25.42261723862837
 21
35.3937159762049
 31
0.0
  0
SOLID
  5
176
330
CBF
100
AcDbEntity
  8
0
 62
     0
100
AcDbTrace
 10
25.29761723862836
 20
16.68883778511746
 30
0.0
 11
25.54761723862836
 21
16.68883778511746
 31
0.0
 12
25.42261723862836
 22
15.93883778511746
 32
0.0
 13
25.42261723862836
 23
15.93883778511746
 33
0.0
  0
SOLID
  5
177
330
CBF
100
AcDbEntity
  8
0
 62
     0
100
AcDbTrace
 10
25.29761723862837
 20
50.18883778511746
 30
0.0
 11
25.54761723862837
 21
50.18883778511746
 31
0.0
 12
25.42261723862837
 22
50.93883778511745
 32
0.0
 13
25.42261723862837
 23
50.93883778511745
 33
0.0
  0
INSERT
  5
178
330
CBF
100
AcDbEntity
  8
0
100
AcDbBlockReference
  2
*U11
 10
0.0
 20
0.0
 30
0.0
  0
POINT
  5
179
330
CBF
100
AcDbEntity
  8
DEFPOINTS
 62
     0
100
AcDbPoint
 10
12.97096329980894
 20
15.93883778511746
 30
0.0
  0
POINT
  5
17A
330
CBF
100
AcDbEntity
  8
DEFPOINTS
 62
     0
100
AcDbPoint
 10
15.22096329980894
 20
50.93883778511746
 30
0.0
  0
POINT
  5
17B
330
CBF
100
AcDbEntity
  8
DEFPOINTS
 62
     0
100
AcDbPoint
 10
25.42261723862837
 20
50.93883778511745
 30
0.0
  0
ENDBLK
  5
145
330
CBF
100
AcDbEntity
  8
0
100
AcDbBlockEnd
  0
BLOCK
  5
CDC
330
CC1
100
AcDbEntity
  8
0
100
AcDbBlockBegin
  2
*U11
 70
     1
 10
0.0
 20
0.0
 30
0.0
  3
*U11
  1

  0
TEXT
  5
C49
330
CC1
100
AcDbEntity
  8
0
 62
     0
100
AcDbText
 10
25.17261723862836
 20
34.2837159762049
 30
0.0
 40
0.75
  1
N
100
AcDbText
  0
ENDBLK
  5
C4B
330
CC1
100
AcDbEntity
  8
0
100
AcDbBlockEnd
  0
BLOCK
  5
CC3
330
CC2
100
AcDbEntity
  8
0
100
AcDbBlockBegin
  2
*D12
 70
     1
 10
0.0
 20
0.0
 30
0.0
  3
*D12
  1

  0
LINE
  5
186
330
CC2
100
AcDbEntity
  8
0
 62
     0
100
AcDbLine
 10
11.00952547204279
 20
5.879980354229245
 30
0.0
 11
2.672053020472135
 21
5.879980354229248
 31
0.0
  0
LINE
  5
187
330
CC2
100
AcDbEntity
  8
0
 62
     0
100
AcDbLine
 10
11.00952547204279
 20
7.379980354229244
 30
0.0
 11
2.672053020472135
 21
7.379980354229249
 31
0.0
  0
LINE
  5
188
330
CC2
100
AcDbEntity
  8
0
 62
     0
100
AcDbLine
 10
3.422053020472135
 20
5.129980354229248
 30
0.0
 11
3.422053020472134
 21
4.379980354229248
 31
0.0
  0
LINE
  5
189
330
CC2
100
AcDbEntity
  8
0
 62
     0
100
AcDbLine
 10
3.422053020472135
 20
8.12998035422925
 30
0.0
 11
3.422053020472135
 21
8.87998035422925
 31
0.0
  0
SOLID
  5
18A
330
CC2
100
AcDbEntity
  8
0
 62
     0
100
AcDbTrace
 10
3.297053020472135
 20
5.129980354229248
 30
0.0
 11
3.547053020472135
 21
5.129980354229248
 31
0.0
 12
3.422053020472135
 22
5.879980354229248
 32
0.0
 13
3.422053020472135
 23
5.879980354229248
 33
0.0
  0
SOLID
  5
18B
330
CC2
100
AcDbEntity
  8
0
 62
     0
100
AcDbTrace
 10
3.297053020472135
 20
8.12998035422925
 30
0.0
 11
3.547053020472135
 21
8.12998035422925
 31
0.0
 12
3.422053020472135
 22
7.379980354229249
 32
0.0
 13
3.422053020472135
 23
7.379980354229249
 33
0.0
  0
INSERT
  5
18C
330
CC2
100
AcDbEntity
  8
0
100
AcDbBlockReference
  2
*U13
 10
0.0
 20
0.0
 30
0.0
  0
POINT
  5
18D
330
CC2
100
AcDbEntity
  8
DEFPOINTS
 62
     0
100
AcDbPoint
 10
11.30952547204279
 20
5.879980354229245
 30
0.0
  0
POINT
  5
18E
330
CC2
100
AcDbEntity
  8
DEFPOINTS
 62
     0
100
AcDbPoint
 10
11.30952547204279
 20
7.379980354229244
 30
0.0
  0
POINT
  5
18F
330
CC2
100
AcDbEntity
  8
DEFPOINTS
 62
     0
100
AcDbPoint
 10
3.422053020472135
 20
7.379980354229249
 30
0.0
  0
ENDBLK
  5
171
330
CC2
100
AcDbEntity
  8
0
100
AcDbBlockEnd
  0
BLOCK
  5
CDE
330
CC4
100
AcDbEntity
  8
0
100
AcDbBlockBegin
  2
*U13
 70
     1
 10
0.0
 20
0.0
 30
0.0
  3
*U13
  1

  0
TEXT
  5
C51
330
CC4
100
AcDbEntity
  8
0
 62
     0
100
AcDbText
 10
3.172053020472134
 20
6.254980354229249
 30
0.0
 40
0.75
  1
F
100
AcDbText
  0
ENDBLK
  5
C53
330
CC4
100
AcDbEntity
  8
0
100
AcDbBlockEnd
  0
BLOCK
  5
CC6
330
CC5
100
AcDbEntity
  8
0
100
AcDbBlockBegin
  2
*D14
 70
     1
 10
0.0
 20
0.0
 30
0.0
  3
*D14
  1

  0
LINE
  5
1B1
330
CC5
100
AcDbEntity
  8
0
 62
     0
100
AcDbLine
 10
7.970963299808942
 20
3.633846459520011
 30
0.0
 11
7.970963299808942
 21
1.453278322762328
 31
0.0
  0
LINE
  5
1B2
330
CC5
100
AcDbEntity
  8
0
 62
     0
100
AcDbLine
 10
15.97096329980893
 20
3.633846459520014
 30
0.0
 11
15.97096329980893
 21
1.453278322762328
 31
0.0
  0
LINE
  5
1B3
330
CC5
100
AcDbEntity
  8
0
 62
     0
100
AcDbLine
 10
8.720963299808943
 20
2.203278322762328
 30
0.0
 11
11.35479962669659
 21
2.203278322762328
 31
0.0
  0
LINE
  5
1B4
330
CC5
100
AcDbEntity
  8
0
 62
     0
100
AcDbLine
 10
15.22096329980894
 20
2.203278322762328
 30
0.0
 11
12.57479962669659
 21
2.203278322762328
 31
0.0
  0
SOLID
  5
1B5
330
CC5
100
AcDbEntity
  8
0
 62
     0
100
AcDbTrace
 10
8.720963299808943
 20
2.328278322762328
 30
0.0
 11
8.720963299808943
 21
2.078278322762328
 31
0.0
 12
7.970963299808942
 22
2.203278322762328
 32
0.0
 13
7.970963299808942
 23
2.203278322762328
 33
0.0
  0
SOLID
  5
1B6
330
CC5
100
AcDbEntity
  8
0
 62
     0
100
AcDbTrace
 10
15.22096329980894
 20
2.328278322762328
 30
0.0
 11
15.22096329980894
 21
2.078278322762328
 31
0.0
 12
15.97096329980893
 22
2.203278322762328
 32
0.0
 13
15.97096329980893
 23
2.203278322762328
 33
0.0
  0
INSERT
  5
1B7
330
CC5
100
AcDbEntity
  8
0
100
AcDbBlockReference
  2
*U15
 10
0.0
 20
0.0
 30
0.0
  0
POINT
  5
1B8
330
CC5
100
AcDbEntity
  8
DEFPOINTS
 62
     0
100
AcDbPoint
 10
7.970963299808942
 20
3.933846459520012
 30
0.0
  0
POINT
  5
1B9
330
CC5
100
AcDbEntity
  8
DEFPOINTS
 62
     0
100
AcDbPoint
 10
15.97096329980893
 20
3.933846459520012
 30
0.0
  0
POINT
  5
1BA
330
CC5
100
AcDbEntity
  8
DEFPOINTS
 62
     0
100
AcDbPoint
 10
15.97096329980893
 20
2.203278322762328
 30
0.0
  0
ENDBLK
  5
1BC
330
CC5
100
AcDbEntity
  8
0
100
AcDbBlockEnd
  0
BLOCK
  5
CE2
330
CC7
100
AcDbEntity
  8
0
100
AcDbBlockBegin
  2
*U15
 70
     1
 10
0.0
 20
0.0
 30
0.0
  3
*U15
  1

  0
TEXT
  5
C61
330
CC7
100
AcDbEntity
  8
0
 62
     0
100
AcDbText
 10
11.71479962669659
 20
1.828278322762328
 30
0.0
 40
0.75
  1
C
100
AcDbText
  0
ENDBLK
  5
C63
330
CC7
100
AcDbEntity
  8
0
100
AcDbBlockEnd
  0
BLOCK
  5
CC9
330
CC8
100
AcDbEntity
  8
0
100
AcDbBlockBegin
  2
*D16
 70
     1
 10
0.0
 20
0.0
 30
0.0
  3
*D16
  1

  0
LINE
  5
1BF
330
CC8
100
AcDbEntity
  8
0
 62
     0
100
AcDbLine
 10
6.970963299808943
 20
3.329980354229245
 30
0.0
 11
6.970963299808943
 21
-0.1451399587203923
 31
0.0
  0
LINE
  5
1C0
330
CC8
100
AcDbEntity
  8
0
 62
     0
100
AcDbLine
 10
16.97096329980894
 20
3.329980354229245
 30
0.0
 11
16.97096329980894
 21
-0.1451399587203923
 31
0.0
  0
LINE
  5
1C1
330
CC8
100
AcDbEntity
  8
0
 62
     0
100
AcDbLine
 10
7.720963299808942
 20
0.6048600412796077
 30
0.0
 11
11.47412672757887
 21
0.6048600412796077
 31
0.0
  0
LINE
  5
1C2
330
CC8
100
AcDbEntity
  8
0
 62
     0
100
AcDbLine
 10
16.22096329980894
 20
0.6048600412796077
 30
0.0
 11
12.69412672757887
 21
0.6048600412796077
 31
0.0
  0
SOLID
  5
1C3
330
CC8
100
AcDbEntity
  8
0
 62
     0
100
AcDbTrace
 10
7.720963299808942
 20
0.7298600412796077
 30
0.0
 11
7.720963299808942
 21
0.4798600412796077
 31
0.0
 12
6.970963299808943
 22
0.6048600412796077
 32
0.0
 13
6.970963299808943
 23
0.6048600412796077
 33
0.0
  0
SOLID
  5
1C4
330
CC8
100
AcDbEntity
  8
0
 62
     0
100
AcDbTrace
 10
16.22096329980894
 20
0.7298600412796077
 30
0.0
 11
16.22096329980894
 21
0.4798600412796077
 31
0.0
 12
16.97096329980894
 22
0.6048600412796077
 32
0.0
 13
16.97096329980894
 23
0.6048600412796077
 33
0.0
  0
INSERT
  5
1C5
330
CC8
100
AcDbEntity
  8
0
100
AcDbBlockReference
  2
*U17
 10
0.0
 20
0.0
 30
0.0
  0
POINT
  5
1C6
330
CC8
100
AcDbEntity
  8
DEFPOINTS
 62
     0
100
AcDbPoint
 10
6.970963299808943
 20
3.629980354229246
 30
0.0
  0
POINT
  5
1C7
330
CC8
100
AcDbEntity
  8
DEFPOINTS
 62
     0
100
AcDbPoint
 10
16.97096329980894
 20
3.629980354229246
 30
0.0
  0
POINT
  5
1C8
330
CC8
100
AcDbEntity
  8
DEFPOINTS
 62
     0
100
AcDbPoint
 10
16.97096329980894
 20
0.6048600412796077
 30
0.0
  0
ENDBLK
  5
1CA
330
CC8
100
AcDbEntity
  8
0
100
AcDbBlockEnd
  0
BLOCK
  5
CE3
330
CCA
100
AcDbEntity
  8
0
100
AcDbBlockBegin
  2
*U17
 70
     1
 10
0.0
 20
0.0
 30
0.0
  3
*U17
  1

  0
TEXT
  5
C65
330
CCA
100
AcDbEntity
  8
0
 62
     0
100
AcDbText
 10
11.83412672757887
 20
0.2298600412796077
 30
0.0
 40
0.75
  1
B
100
AcDbText
  0
ENDBLK
  5
C67
330
CCA
100
AcDbEntity
  8
0
100
AcDbBlockEnd
  0
BLOCK
  5
CCC
330
CCB
100
AcDbEntity
  8
0
100
AcDbBlockBegin
  2
*D18
 70
     1
 10
0.0
 20
0.0
 30
0.0
  3
*D18
  1

  0
LINE
  5
1CD
330
CCB
100
AcDbEntity
  8
0
 62
     0
100
AcDbLine
 10
16.96709719451817
 20
4.629980354229245
 30
0.0
 11
19.37326090943759
 21
4.629980354229244
 31
0.0
  0
LINE
  5
1CE
330
CCB
100
AcDbEntity
  8
0
 62
     0
100
AcDbLine
 10
16.96709719451817
 20
8.629980354229246
 30
0.0
 11
19.37326090943759
 21
8.629980354229246
 31
0.0
  0
LINE
  5
1CF
330
CCB
100
AcDbEntity
  8
0
 62
     0
100
AcDbLine
 10
18.62326090943759
 20
5.379980354229244
 30
0.0
 11
18.62326090943759
 21
5.881821397490464
 31
0.0
  0
LINE
  5
1D0
330
CCB
100
AcDbEntity
  8
0
 62
     0
100
AcDbLine
 10
18.62326090943759
 20
7.879980354229244
 30
0.0
 11
18.62326090943759
 21
7.351821397490463
 31
0.0
  0
SOLID
  5
1D1
330
CCB
100
AcDbEntity
  8
0
 62
     0
100
AcDbTrace
 10
18.49826090943759
 20
5.379980354229244
 30
0.0
 11
18.74826090943759
 21
5.379980354229244
 31
0.0
 12
18.62326090943759
 22
4.629980354229244
 32
0.0
 13
18.62326090943759
 23
4.629980354229244
 33
0.0
  0
SOLID
  5
1D2
330
CCB
100
AcDbEntity
  8
0
 62
     0
100
AcDbTrace
 10
18.49826090943759
 20
7.879980354229244
 30
0.0
 11
18.74826090943759
 21
7.879980354229244
 31
0.0
 12
18.62326090943759
 22
8.629980354229246
 32
0.0
 13
18.62326090943759
 23
8.629980354229246
 33
0.0
  0
INSERT
  5
1D3
330
CCB
100
AcDbEntity
  8
0
100
AcDbBlockReference
  2
*U19
 10
0.0
 20
0.0
 30
0.0
  0
POINT
  5
1D4
330
CCB
100
AcDbEntity
  8
DEFPOINTS
 62
     0
100
AcDbPoint
 10
16.66709719451817
 20
4.629980354229245
 30
0.0
  0
POINT
  5
1D5
330
CCB
100
AcDbEntity
  8
DEFPOINTS
 62
     0
100
AcDbPoint
 10
16.66709719451817
 20
8.629980354229246
 30
0.0
  0
POINT
  5
1D6
330
CCB
100
AcDbEntity
  8
DEFPOINTS
 62
     0
100
AcDbPoint
 10
18.62326090943759
 20
8.629980354229246
 30
0.0
  0
ENDBLK
  5
1D8
330
CCB
100
AcDbEntity
  8
0
100
AcDbBlockEnd
  0
BLOCK
  5
CE4
330
CCD
100
AcDbEntity
  8
0
100
AcDbBlockBegin
  2
*U19
 70
     1
 10
0.0
 20
0.0
 30
0.0
  3
*U19
  1

  0
TEXT
  5
C69
330
CCD
100
AcDbEntity
  8
0
 62
     0
100
AcDbText
 10
18.37326090943759
 20
6.241821397490467
 30
0.0
 40
0.75
  1
E
100
AcDbText
  0
ENDBLK
  5
C6B
330
CCD
100
AcDbEntity
  8
0
100
AcDbBlockEnd
  0
BLOCK
  5
CCF
330
CCE
100
AcDbEntity
  8
0
100
AcDbBlockBegin
  2
*D20
 70
     1
 10
0.0
 20
0.0
 30
0.0
  3
*D20
  1

  0
LINE
  5
1DB
330
CCE
100
AcDbEntity
  8
0
 62
     0
100
AcDbLine
 10
17.27096329980893
 20
3.629980354229246
 30
0.0
 11
21.75980623934285
 21
3.629980354229243
 31
0.0
  0
LINE
  5
1DC
330
CCE
100
AcDbEntity
  8
0
 62
     0
100
AcDbLine
 10
17.27096329980893
 20
9.629980354229246
 30
0.0
 11
21.75980623934286
 21
9.629980354229244
 31
0.0
  0
LINE
  5
1DD
330
CCE
100
AcDbEntity
  8
0
 62
     0
100
AcDbLine
 10
21.00980623934285
 20
4.379980354229244
 30
0.0
 11
21.00980623934285
 21
5.929535314087624
 31
0.0
  0
LINE
  5
1DE
330
CCE
100
AcDbEntity
  8
0
 62
     0
100
AcDbLine
 10
21.00980623934285
 20
8.879980354229244
 30
0.0
 11
21.00980623934285
 21
7.399535314087625
 31
0.0
  0
SOLID
  5
1DF
330
CCE
100
AcDbEntity
  8
0
 62
     0
100
AcDbTrace
 10
20.88480623934285
 20
4.379980354229244
 30
0.0
 11
21.13480623934285
 21
4.379980354229244
 31
0.0
 12
21.00980623934285
 22
3.629980354229243
 32
0.0
 13
21.00980623934285
 23
3.629980354229243
 33
0.0
  0
SOLID
  5
1E0
330
CCE
100
AcDbEntity
  8
0
 62
     0
100
AcDbTrace
 10
20.88480623934286
 20
8.879980354229244
 30
0.0
 11
21.13480623934286
 21
8.879980354229244
 31
0.0
 12
21.00980623934285
 22
9.629980354229244
 32
0.0
 13
21.00980623934285
 23
9.629980354229244
 33
0.0
  0
INSERT
  5
1E1
330
CCE
100
AcDbEntity
  8
0
100
AcDbBlockReference
  2
*U21
 10
0.0
 20
0.0
 30
0.0
  0
POINT
  5
1E2
330
CCE
100
AcDbEntity
  8
DEFPOINTS
 62
     0
100
AcDbPoint
 10
16.97096329980894
 20
3.629980354229246
 30
0.0
  0
POINT
  5
1E3
330
CCE
100
AcDbEntity
  8
DEFPOINTS
 62
     0
100
AcDbPoint
 10
16.97096329980894
 20
9.629980354229246
 30
0.0
  0
POINT
  5
1E4
330
CCE
100
AcDbEntity
  8
DEFPOINTS
 62
     0
100
AcDbPoint
 10
21.00980623934285
 20
9.629980354229244
 30
0.0
  0
ENDBLK
  5
1E6
330
CCE
100
AcDbEntity
  8
0
100
AcDbBlockEnd
  0
BLOCK
  5
CE5
330
CD0
100
AcDbEntity
  8
0
100
AcDbBlockBegin
  2
*U21
 70
     1
 10
0.0
 20
0.0
 30
0.0
  3
*U21
  1

  0
TEXT
  5
C6D
330
CD0
100
AcDbEntity
  8
0
 62
     0
100
AcDbText
 10
20.75980623934285
 20
6.289535314087628
 30
0.0
 40
0.75
  1
A
100
AcDbText
  0
ENDBLK
  5
C6F
330
CD0
100
AcDbEntity
  8
0
100
AcDbBlockEnd
  0
BLOCK
  5
CD2
330
CD1
100
AcDbEntity
  8
0
100
AcDbBlockBegin
  2
*D22
 70
     1
 10
0.0
 20
0.0
 30
0.0
  3
*D22
  1

  0
LINE
  5
1E9
330
CD1
100
AcDbEntity
  8
0
 62
     0
100
AcDbLine
 10
9.970963299808943
 20
6.929980354229246
 30
0.0
 11
9.970963299808943
 21
12.0666482995086
 31
0.0
  0
LINE
  5
1EA
330
CD1
100
AcDbEntity
  8
0
 62
     0
100
AcDbLine
 10
13.97096329980894
 20
6.929980354229246
 30
0.0
 11
13.97096329980894
 21
12.0666482995086
 31
0.0
  0
LINE
  5
1EB
330
CD1
100
AcDbEntity
  8
0
 62
     0
100
AcDbLine
 10
10.72096329980894
 20
11.3166482995086
 30
0.0
 11
11.3309340593086
 21
11.3166482995086
 31
0.0
  0
LINE
  5
1EC
330
CD1
100
AcDbEntity
  8
0
 62
     0
100
AcDbLine
 10
13.22096329980894
 20
11.3166482995086
 30
0.0
 11
12.5509340593086
 21
11.3166482995086
 31
0.0
  0
SOLID
  5
1ED
330
CD1
100
AcDbEntity
  8
0
 62
     0
100
AcDbTrace
 10
10.72096329980894
 20
11.4416482995086
 30
0.0
 11
10.72096329980894
 21
11.1916482995086
 31
0.0
 12
9.970963299808943
 22
11.3166482995086
 32
0.0
 13
9.970963299808943
 23
11.3166482995086
 33
0.0
  0
SOLID
  5
1EE
330
CD1
100
AcDbEntity
  8
0
 62
     0
100
AcDbTrace
 10
13.22096329980894
 20
11.4416482995086
 30
0.0
 11
13.22096329980894
 21
11.1916482995086
 31
0.0
 12
13.97096329980894
 22
11.3166482995086
 32
0.0
 13
13.97096329980894
 23
11.3166482995086
 33
0.0
  0
INSERT
  5
1EF
330
CD1
100
AcDbEntity
  8
0
100
AcDbBlockReference
  2
*U23
 10
0.0
 20
0.0
 30
0.0
  0
POINT
  5
1F0
330
CD1
100
AcDbEntity
  8
DEFPOINTS
 62
     0
100
AcDbPoint
 10
9.970963299808943
 20
6.629980354229245
 30
0.0
  0
POINT
  5
1F1
330
CD1
100
AcDbEntity
  8
DEFPOINTS
 62
     0
100
AcDbPoint
 10
13.97096329980894
 20
6.629980354229245
 30
0.0
  0
POINT
  5
1F2
330
CD1
100
AcDbEntity
  8
DEFPOINTS
 62
     0
100
AcDbPoint
 10
13.97096329980894
 20
11.3166482995086
 30
0.0
  0
ENDBLK
  5
1F4
330
CD1
100
AcDbEntity
  8
0
100
AcDbBlockEnd
  0
BLOCK
  5
CE6
330
CD3
100
AcDbEntity
  8
0
100
AcDbBlockBegin
  2
*U23
 70
     1
 10
0.0
 20
0.0
 30
0.0
  3
*U23
  1

  0
TEXT
  5
C71
330
CD3
100
AcDbEntity
  8
0
 62
     0
100
AcDbText
 10
11.6909340593086
 20
10.9416482995086
 30
0.0
 40
0.75
  1
D
100
AcDbText
  0
ENDBLK
  5
C73
330
CD3
100
AcDbEntity
  8
0
100
AcDbBlockEnd
  0
BLOCK
  5
CD5
330
CD4
100
AcDbEntity
  8
0
100
AcDbBlockBegin
  2
*U24
 70
     1
 10
0.0
 20
0.0
 30
0.0
  3
*U24
  1

  0
TEXT
  5
C36
330
CD4
100
AcDbEntity
  8
0
100
AcDbText
 10
5.889006237553829
 20
24.19483738982985
 30
0.0
 40
0.75
  1
M
100
AcDbText
  0
ENDBLK
  5
C38
330
CD4
100
AcDbEntity
  8
0
100
AcDbBlockEnd
  0
BLOCK
  5
CD7
330
CD6
100
AcDbEntity
  8
0
100
AcDbBlockBegin
  2
*U25
 70
     1
 10
0.0
 20
0.0
 30
0.0
  3
*U25
  1

  0
TEXT
  5
C3A
330
CD6
100
AcDbEntity
  8
0
100
AcDbText
 10
17.43205961402042
 20
31.40077626690116
 30
0.0
 40
0.75
  1
SHUT-OFF 
100
AcDbText
  0
TEXT
  5
C3B
330
CD6
100
AcDbEntity
  8
0
100
AcDbText
 10
17.43205961402042
 20
30.15077626690116
 30
0.0
 40
0.75
  1
VALVE
100
AcDbText
  0
TEXT
  5
C3C
330
CD6
100
AcDbEntity
  8
0
100
AcDbText
 10
17.43205961402042
 20
28.90077626690116
 30
0.0
 40
0.375
  1
(OPPOSITE SIDE)
100
AcDbText
  0
ENDBLK
  5
C3E
330
CD6
100
AcDbEntity
  8
0
100
AcDbBlockEnd
  0
BLOCK
  5
CD9
330
CD8
100
AcDbEntity
  8
0
100
AcDbBlockBegin
  2
*U26
 70
     1
 10
0.0
 20
0.0
 30
0.0
  3
*U26
  1

  0
TEXT
  5
C40
330
CD8
100
AcDbEntity
  8
0
100
AcDbText
 10
18.66926848417448
 20
37.04402140105873
 30
0.0
 40
0.75
  1
BLEED
100
AcDbText
  0
TEXT
  5
C41
330
CD8
100
AcDbEntity
  8
0
100
AcDbText
 10
18.66926848417448
 20
35.79402140105874
 30
0.0
 40
0.75
  1
VALVE
100
AcDbText
  0
ENDBLK
  5
C43
330
CD8
100
AcDbEntity
  8
0
100
AcDbBlockEnd
  0
BLOCK
  5
CDB
330
CDA
100
AcDbEntity
  8
0
100
AcDbBlockBegin
  2
*U27
 70
     1
 10
0.0
 20
0.0
 30
0.0
  3
*U27
  1

  0
TEXT
  5
C45
330
CDA
100
AcDbEntity
  8
0
100
AcDbText
 10
18.23396413433961
 20
46.50598551791531
 30
0.0
 40
0.75
  1
M
100
AcDbText
  0
ENDBLK
  5
C47
330
CDA
100
AcDbEntity
  8
0
100
AcDbBlockEnd
  0
BLOCK
  5
CE8
330
CE7
100
AcDbEntity
  8
0
100
AcDbBlockBegin
  2
*U28
 70
     1
 10
0.0
 20
0.0
 30
0.0
  3
*U28
  1

  0
TEXT
  5
C75
330
CE7
100
AcDbEntity
  8
0
100
AcDbText
 10
18.11041005565969
 20
11.84821391644708
 30
0.0
 40
0.75
  1
G (FEMALE THREADS)
100
AcDbText
  0
ENDBLK
  5
C77
330
CE7
100
AcDbEntity
  8
0
100
AcDbBlockEnd
  0
BLOCK
  5
CEA
330
CE9
100
AcDbEntity
  8
0
100
AcDbBlockBegin
  2
*U29
 70
     1
 10
0.0
 20
0.0
 30
0.0
  3
*U29
  1

  0
TEXT
  5
C79
330
CE9
100
AcDbEntity
  8
0
100
AcDbText
 10
19.709395526064
 20
0.6831429043666759
 30
0.0
 40
0.75
  1
H (MOUNTING HOLES)
100
AcDbText
  0
ENDBLK
  5
C7B
330
CE9
100
AcDbEntity
  8
0
100
AcDbBlockEnd
  0
ENDSEC
  0
SECTION
  2
ENTITIES
  0
LINE
  5
2B
330
CA0
100
AcDbEntity
  8
0
100
AcDbLine
 10
9.970963299808943
 20
17.74883778511746
 30
0.0
 11
13.97096329980894
 21
17.74883778511746
 31
0.0
  0
LINE
  5
2C
330
CA0
100
AcDbEntity
  8
0
100
AcDbLine
 10
9.970963299808943
 20
18.49883778511745
 30
0.0
 11
13.97096329980894
 21
18.49883778511745
 31
0.0
  0
LINE
  5
2D
330
CA0
100
AcDbEntity
  8
0
100
AcDbLine
 10
9.970963299808943
 20
18.49883778511745
 30
0.0
 11
9.970963299808943
 21
17.74883778511746
 31
0.0
  0
LINE
  5
2E
330
CA0
100
AcDbEntity
  8
0
100
AcDbLine
 10
13.97096329980894
 20
18.49883778511745
 30
0.0
 11
13.97096329980894
 21
17.74883778511746
 31
0.0
  0
LINE
  5
2F
330
CA0
100
AcDbEntity
  8
0
100
AcDbLine
 10
10.47096329980894
 20
16.99883778511746
 30
0.0
 11
13.47096329980894
 21
16.99883778511746
 31
0.0
  0
LINE
  5
31
330
CA0
100
AcDbEntity
  8
0
100
AcDbLine
 10
13.47096329980894
 20
17.74883778511746
 30
0.0
 11
13.47096329980894
 21
16.99883778511746
 31
0.0
  0
LINE
  5
32
330
CA0
100
AcDbEntity
  8
0
100
AcDbLine
 10
10.47096329980894
 20
17.74883778511746
 30
0.0
 11
10.47096329980894
 21
16.99883778511746
 31
0.0
  0
LINE
  5
33
330
CA0
100
AcDbEntity
  8
0
100
AcDbLine
 10
10.97096329980894
 20
15.93883778511746
 30
0.0
 11
12.97096329980894
 21
15.93883778511746
 31
0.0
  0
LINE
  5
36
330
CA0
100
AcDbEntity
  8
0
100
AcDbLine
 10
12.97096329980894
 20
16.99883778511746
 30
0.0
 11
12.97096329980894
 21
15.93883778511746
 31
0.0
  0
LINE
  5
37
330
CA0
100
AcDbEntity
  8
0
100
AcDbLine
 10
10.97096329980894
 20
16.99883778511746
 30
0.0
 11
10.97096329980894
 21
15.93883778511746
 31
0.0
  0
LINE
  5
38
330
CA0
100
AcDbEntity
  8
0
100
AcDbLine
 10
12.65846329980894
 20
16.68883778511746
 30
0.0
 11
12.65846329980894
 21
15.93883778511746
 31
0.0
  0
LINE
  5
39
330
CA0
100
AcDbEntity
  8
0
100
AcDbLine
 10
11.28346329980894
 20
16.68883778511746
 30
0.0
 11
11.28346329980894
 21
15.93883778511746
 31
0.0
  0
LINE
  5
3B
330
CA0
100
AcDbEntity
  8
0
100
AcDbLine
 10
11.28346329980894
 20
16.68883778511746
 30
0.0
 11
12.65846329980894
 21
16.68883778511746
 31
0.0
  0
LINE
  5
3D
330
CA0
100
AcDbEntity
  8
0
100
AcDbLine
 10
6.970963299808943
 20
18.49883778511745
 30
0.0
 11
6.970963299808943
 21
20.49883778511745
 31
0.0
  0
LINE
  5
3E
330
CA0
100
AcDbEntity
  8
0
100
AcDbLine
 10
16.97096329980894
 20
18.49883778511745
 30
0.0
 11
16.97096329980894
 21
20.49883778511745
 31
0.0
  0
LINE
  5
3F
330
CA0
100
AcDbEntity
  8
0
100
AcDbLine
 10
6.970963299808943
 20
18.49883778511745
 30
0.0
 11
16.97096329980894
 21
18.49883778511745
 31
0.0
  0
LINE
  5
40
330
CA0
100
AcDbEntity
  8
0
100
AcDbLine
 10
16.97096329980894
 20
20.49883778511745
 30
0.0
 11
6.970963299808943
 21
20.49883778511745
 31
0.0
  0
LINE
  5
44
330
CA0
100
AcDbEntity
  8
0
100
AcDbLine
 10
8.720963299808943
 20
50.93883778511746
 30
0.0
 11
15.22096329980894
 21
50.93883778511746
 31
0.0
  0
LINE
  5
45
330
CA0
100
AcDbEntity
  8
0
  6
CENTER
100
AcDbLine
 10
11.97096329980894
 20
49.66332705405193
 30
0.0
 11
11.97096329980894
 21
50.71434851618297
 31
0.0
  0
LINE
  5
46
330
CA0
100
AcDbEntity
  8
0
100
AcDbLine
 10
14.97096329980894
 20
20.49883778511745
 30
0.0
 11
14.97096329980894
 21
33.49883778511745
 31
0.0
  0
LINE
  5
47
330
CA0
100
AcDbEntity
  8
0
100
AcDbLine
 10
8.970963299808943
 20
20.49883778511745
 30
0.0
 11
8.970963299808943
 21
33.49883778511745
 31
0.0
  0
LINE
  5
48
330
CA0
100
AcDbEntity
  8
0
100
AcDbLine
 10
8.720963299808943
 20
49.43883778511747
 30
0.0
 11
15.22096329980894
 21
49.43883778511747
 31
0.0
  0
LINE
  5
49
330
CA0
100
AcDbEntity
  8
0
100
AcDbLine
 10
15.22096329980894
 20
49.43883778511747
 30
0.0
 11
15.22096329980894
 21
50.93883778511746
 31
0.0
  0
LINE
  5
4A
330
CA0
100
AcDbEntity
  8
0
100
AcDbLine
 10
8.720963299808943
 20
49.43883778511747
 30
0.0
 11
8.720963299808943
 21
50.93883778511746
 31
0.0
  0
LINE
  5
4D
330
CA0
100
AcDbEntity
  8
0
100
AcDbLine
 10
14.72096329980893
 20
20.49883778511745
 30
0.0
 11
14.72096329980893
 21
33.49883778511745
 31
0.0
  0
LINE
  5
4E
330
CA0
100
AcDbEntity
  8
0
100
AcDbLine
 10
9.220963299808943
 20
20.49883778511745
 30
0.0
 11
9.220963299808943
 21
33.49883778511745
 31
0.0
  0
LINE
  5
4F
330
CA0
100
AcDbEntity
  8
0
100
AcDbLine
 10
9.970963299808943
 20
20.49883778511745
 30
0.0
 11
9.970963299808943
 21
33.49883778511745
 31
0.0
  0
LINE
  5
50
330
CA0
100
AcDbEntity
  8
0
100
AcDbLine
 10
13.97096329980894
 20
20.49883778511745
 30
0.0
 11
13.97096329980894
 21
33.49883778511745
 31
0.0
  0
LINE
  5
51
330
CA0
100
AcDbEntity
  8
0
100
AcDbLine
 10
8.970963299808943
 20
50.93883778511746
 30
0.0
 11
8.970963299808943
 21
51.43883778511746
 31
0.0
  0
LINE
  5
53
330
CA0
100
AcDbEntity
  8
0
100
AcDbLine
 10
10.22096329980894
 20
50.93883778511746
 30
0.0
 11
10.22096329980894
 21
51.43883778511746
 31
0.0
  0
LINE
  5
54
330
CA0
100
AcDbEntity
  8
0
100
AcDbLine
 10
8.970963299808943
 20
51.43883778511746
 30
0.0
 11
10.22096329980894
 21
51.43883778511746
 31
0.0
  0
LINE
  5
55
330
CA0
100
AcDbEntity
  8
0
100
AcDbLine
 10
14.97096329980894
 20
51.43883778511746
 30
0.0
 11
13.72096329980894
 21
51.43883778511746
 31
0.0
  0
LINE
  5
56
330
CA0
100
AcDbEntity
  8
0
100
AcDbLine
 10
14.97096329980894
 20
50.93883778511746
 30
0.0
 11
14.97096329980894
 21
51.43883778511746
 31
0.0
  0
LINE
  5
57
330
CA0
100
AcDbEntity
  8
0
100
AcDbLine
 10
13.72096329980894
 20
50.93883778511746
 30
0.0
 11
13.72096329980894
 21
51.43883778511746
 31
0.0
  0
CIRCLE
  5
58
330
CA0
100
AcDbEntity
  8
0
100
AcDbCircle
 10
11.97096329980894
 20
50.18883778511746
 30
0.0
 40
0.375
  0
LINE
  5
59
330
CA0
100
AcDbEntity
  8
0
  6
CENTER
100
AcDbLine
 10
11.44545256874341
 20
50.18883778511746
 30
0.0
 11
12.49647403087447
 21
50.18883778511746
 31
0.0
  0
LINE
  5
5B
330
CA0
100
AcDbEntity
  8
0
100
AcDbLine
 10
14.97096329980894
 20
26.49883778511746
 30
0.0
 11
14.72096329980893
 21
26.49883778511746
 31
0.0
  0
LINE
  5
5C
330
CA0
100
AcDbEntity
  8
0
100
AcDbLine
 10
14.97096329980894
 20
33.49883778511745
 30
0.0
 11
14.72096329980893
 21
33.49883778511745
 31
0.0
  0
LINE
  5
5D
330
CA0
100
AcDbEntity
  8
0
100
AcDbLine
 10
14.97096329980894
 20
41.49883778511745
 30
0.0
 11
14.72096329980893
 21
41.49883778511745
 31
0.0
  0
LINE
  5
5E
330
CA0
100
AcDbEntity
  8
0
100
AcDbLine
 10
14.97096329980894
 20
42.99883778511745
 30
0.0
 11
14.72096329980893
 21
42.99883778511745
 31
0.0
  0
LINE
  5
5F
330
CA0
100
AcDbEntity
  8
0
100
AcDbLine
 10
9.220963299808943
 20
41.49883778511745
 30
0.0
 11
8.970963299808943
 21
41.49883778511745
 31
0.0
  0
LINE
  5
60
330
CA0
100
AcDbEntity
  8
0
100
AcDbLine
 10
9.220963299808943
 20
42.99883778511745
 30
0.0
 11
8.970963299808943
 21
42.99883778511745
 31
0.0
  0
LINE
  5
61
330
CA0
100
AcDbEntity
  8
0
100
AcDbLine
 10
13.97096329980894
 20
42.99883778511745
 30
0.0
 11
9.970963299808943
 21
42.99883778511745
 31
0.0
  0
LINE
  5
62
330
CA0
100
AcDbEntity
  8
0
100
AcDbLine
 10
13.97096329980894
 20
41.49883778511745
 30
0.0
 11
9.970963299808943
 21
41.49883778511745
 31
0.0
  0
LINE
  5
63
330
CA0
100
AcDbEntity
  8
0
100
AcDbLine
 10
9.220963299808943
 20
33.49883778511745
 30
0.0
 11
8.970963299808943
 21
33.49883778511745
 31
0.0
  0
LINE
  5
65
330
CA0
100
AcDbEntity
  8
0
100
AcDbLine
 10
9.220963299808943
 20
26.49883778511746
 30
0.0
 11
8.970963299808943
 21
26.49883778511746
 31
0.0
  0
LINE
  5
66
330
CA0
100
AcDbEntity
  8
0
100
AcDbLine
 10
13.97096329980894
 20
26.49883778511746
 30
0.0
 11
9.970963299808943
 21
26.49883778511746
 31
0.0
  0
LINE
  5
68
330
CA0
100
AcDbEntity
  8
0
100
AcDbLine
 10
11.3081698155489
 20
50.56383778511746
 30
0.0
 11
10.55816981554891
 21
50.56383778511746
 31
0.0
  0
LINE
  5
69
330
CA0
100
AcDbEntity
  8
0
100
AcDbLine
 10
11.3081698155489
 20
49.81383778511745
 30
0.0
 11
10.55816981554891
 21
49.81383778511744
 31
0.0
  0
LINE
  5
6A
330
CA0
100
AcDbEntity
  8
0
100
AcDbLine
 10
11.3081698155489
 20
50.56383778511746
 30
0.0
 11
11.3081698155489
 21
49.81383778511744
 31
0.0
  0
LINE
  5
6B
330
CA0
100
AcDbEntity
  8
0
100
AcDbLine
 10
10.55816981554891
 20
50.56383778511746
 30
0.0
 11
10.55816981554891
 21
49.81383778511744
 31
0.0
  0
TEXT
  5
6C
330
CA0
100
AcDbEntity
  8
0
100
AcDbText
 10
10.76533492539279
 20
49.93524076311588
 30
0.0
 40
0.5
  1
2
100
AcDbText
  0
LINE
  5
73
330
CA0
100
AcDbEntity
  8
0
  6
CENTER
100
AcDbLine
 10
11.37527162756203
 20
41.73013433529243
 30
0.0
 11
11.37527162756203
 21
42.78115579742348
 31
0.0
  0
TEXT
  5
74
330
CA0
100
AcDbEntity
  8
0
100
AcDbText
 10
10.40729200526344
 20
42.00204804435637
 30
0.0
 40
0.5
  1
1
100
AcDbText
  0
LINE
  5
75
330
CA0
100
AcDbEntity
  8
0
100
AcDbLine
 10
10.8497608964965
 20
42.63064506635795
 30
0.0
 11
10.8497608964965
 21
41.88064506635795
 31
0.0
  0
LINE
  5
76
330
CA0
100
AcDbEntity
  8
0
100
AcDbLine
 10
10.0997608964965
 20
42.63064506635795
 30
0.0
 11
10.0997608964965
 21
41.88064506635795
 31
0.0
  0
CIRCLE
  5
77
330
CA0
100
AcDbEntity
  8
0
100
AcDbCircle
 10
11.37527162756203
 20
42.25564506635794
 30
0.0
 40
0.375
  0
LINE
  5
78
330
CA0
100
AcDbEntity
  8
0
100
AcDbLine
 10
10.8497608964965
 20
41.88064506635796
 30
0.0
 11
10.0997608964965
 21
41.88064506635795
 31
0.0
  0
LINE
  5
79
330
CA0
100
AcDbEntity
  8
0
  6
CENTER
100
AcDbLine
 10
10.8497608964965
 20
42.25564506635794
 30
0.0
 11
11.90078235862756
 21
42.25564506635794
 31
0.0
  0
LINE
  5
7A
330
CA0
100
AcDbEntity
  8
0
100
AcDbLine
 10
10.8497608964965
 20
42.63064506635795
 30
0.0
 11
10.0997608964965
 21
42.63064506635795
 31
0.0
  0
CIRCLE
  5
7B
330
CA0
100
AcDbEntity
  8
0
100
AcDbCircle
 10
12.56665497205585
 20
42.25564506635794
 30
0.0
 40
0.375
  0
LINE
  5
7C
330
CA0
100
AcDbEntity
  8
0
  6
CENTER
100
AcDbLine
 10
12.56665497205585
 20
41.73013433529243
 30
0.0
 11
12.56665497205585
 21
42.78115579742348
 31
0.0
  0
LINE
  5
7E
330
CA0
100
AcDbEntity
  8
0
100
AcDbLine
 10
13.09216570312138
 20
42.63064506635795
 30
0.0
 11
13.09216570312138
 21
41.88064506635795
 31
0.0
  0
LINE
  5
7F
330
CA0
100
AcDbEntity
  8
0
100
AcDbLine
 10
13.84216570312138
 20
42.63064506635795
 30
0.0
 11
13.84216570312138
 21
41.88064506635795
 31
0.0
  0
LINE
  5
80
330
CA0
100
AcDbEntity
  8
0
100
AcDbLine
 10
13.09216570312138
 20
41.88064506635796
 30
0.0
 11
13.84216570312138
 21
41.88064506635795
 31
0.0
  0
LINE
  5
81
330
CA0
100
AcDbEntity
  8
0
  6
CENTER
100
AcDbLine
 10
13.09216570312138
 20
42.25564506635794
 30
0.0
 11
12.04114424099033
 21
42.25564506635794
 31
0.0
  0
LINE
  5
82
330
CA0
100
AcDbEntity
  8
0
100
AcDbLine
 10
13.09216570312138
 20
42.63064506635795
 30
0.0
 11
13.84216570312138
 21
42.63064506635795
 31
0.0
  0
TEXT
  5
83
330
CA0
100
AcDbEntity
  8
0
100
AcDbText
 10
13.29933081296526
 20
42.00204804435637
 30
0.0
 40
0.5
  1
3
100
AcDbText
  0
LINE
  5
85
330
CA0
100
AcDbEntity
  8
0
100
AcDbLine
 10
9.970963299808943
 20
33.49883778511745
 30
0.0
 11
9.970963299808943
 21
49.43883778511747
 31
0.0
  0
LINE
  5
86
330
CA0
100
AcDbEntity
  8
0
100
AcDbLine
 10
13.97096329980894
 20
33.49883778511745
 30
0.0
 11
13.97096329980894
 21
49.43883778511747
 31
0.0
  0
LINE
  5
87
330
CA0
100
AcDbEntity
  8
0
100
AcDbLine
 10
9.220963299808943
 20
33.49883778511745
 30
0.0
 11
9.220963299808943
 21
49.43883778511747
 31
0.0
  0
LINE
  5
88
330
CA0
100
AcDbEntity
  8
0
100
AcDbLine
 10
8.970963299808943
 20
33.49883778511745
 30
0.0
 11
8.970963299808943
 21
49.43883778511747
 31
0.0
  0
LINE
  5
89
330
CA0
100
AcDbEntity
  8
0
100
AcDbLine
 10
14.72096329980893
 20
33.49883778511745
 30
0.0
 11
14.72096329980893
 21
49.43883778511747
 31
0.0
  0
LINE
  5
8A
330
CA0
100
AcDbEntity
  8
0
100
AcDbLine
 10
14.97096329980894
 20
33.49883778511745
 30
0.0
 11
14.97096329980894
 21
49.43883778511747
 31
0.0
  0
LINE
  5
8B
330
CA0
100
AcDbEntity
  8
0
100
AcDbLine
 10
13.97096329980894
 20
33.49883778511745
 30
0.0
 11
9.970963299808943
 21
33.49883778511745
 31
0.0
  0
LINE
  5
8C
330
CA0
100
AcDbEntity
  8
0
100
AcDbLine
 10
13.72096329980894
 20
32.24883778511745
 30
0.0
 11
13.72096329980894
 21
33.24883778511745
 31
0.0
  0
LINE
  5
8D
330
CA0
100
AcDbEntity
  8
0
100
AcDbLine
 10
13.72096329980894
 20
33.24883778511745
 30
0.0
 11
12.97096329980894
 21
33.24883778511745
 31
0.0
  0
LINE
  5
8E
330
CA0
100
AcDbEntity
  8
0
100
AcDbLine
 10
12.97096329980894
 20
32.24883778511745
 30
0.0
 11
12.97096329980894
 21
33.24883778511745
 31
0.0
  0
LINE
  5
90
330
CA0
100
AcDbEntity
  8
0
100
AcDbLine
 10
13.72096329980894
 20
32.24883778511745
 30
0.0
 11
12.97096329980894
 21
32.24883778511745
 31
0.0
  0
CIRCLE
  5
93
330
CA0
100
AcDbEntity
  8
0
100
AcDbCircle
 10
13.34596329980894
 20
32.74883778511745
 30
0.0
 40
0.375
  0
LINE
  5
96
330
CA0
100
AcDbEntity
  8
0
  6
CENTER
100
AcDbLine
 10
11.97096329980894
 20
51.93883778511747
 30
0.0
 11
11.97096329980894
 21
14.93883778511746
 31
0.0
  0
CIRCLE
  5
98
330
CA0
100
AcDbEntity
  8
0
  6
HIDDEN
100
AcDbCircle
 10
11.97096329980894
 20
27.49883778511746
 30
0.0
 40
0.375
  0
LINE
  5
99
330
CA0
100
AcDbEntity
  8
0
  6
HIDDEN
100
AcDbLine
 10
12.34596329980894
 20
26.99883778511745
 30
0.0
 11
11.59596329980894
 21
26.99883778511745
 31
0.0
  0
LINE
  5
9A
330
CA0
100
AcDbEntity
  8
0
  6
HIDDEN
100
AcDbLine
 10
12.34596329980894
 20
27.99883778511746
 30
0.0
 11
11.59596329980894
 21
27.99883778511746
 31
0.0
  0
LINE
  5
9B
330
CA0
100
AcDbEntity
  8
0
  6
HIDDEN
100
AcDbLine
 10
11.59596329980894
 20
26.99883778511745
 30
0.0
 11
11.59596329980894
 21
27.99883778511746
 31
0.0
  0
LINE
  5
9C
330
CA0
100
AcDbEntity
  8
0
  6
HIDDEN
100
AcDbLine
 10
12.34596329980894
 20
26.99883778511745
 30
0.0
 11
12.34596329980894
 21
27.99883778511746
 31
0.0
  0
LINE
  5
A2
330
CA0
100
AcDbEntity
  8
0
  6
CENTER
100
AcDbLine
 10
10.72096329980894
 20
18.97332705405192
 30
0.0
 11
10.72096329980894
 21
20.02434851618298
 31
0.0
  0
CIRCLE
  5
A3
330
CA0
100
AcDbEntity
  8
0
100
AcDbCircle
 10
10.72096329980894
 20
19.49883778511745
 30
0.0
 40
0.375
  0
LINE
  5
A4
330
CA0
100
AcDbEntity
  8
0
  6
CENTER
100
AcDbLine
 10
10.19545256874341
 20
19.49883778511745
 30
0.0
 11
11.24647403087447
 21
19.49883778511745
 31
0.0
  0
TEXT
  5
A8
330
CA0
100
AcDbEntity
  8
0
100
AcDbText
 10
9.020551637576161
 20
19.27385162426499
 30
0.0
 40
0.5
  1
3A
100
AcDbText
  0
LINE
  5
A9
330
CA0
100
AcDbEntity
  8
0
100
AcDbLine
 10
9.967614428790723
 20
19.89123938226126
 30
0.0
 11
9.967614428790723
 21
19.14123938226126
 31
0.0
  0
LINE
  5
AA
330
CA0
100
AcDbEntity
  8
0
100
AcDbLine
 10
8.903644891024455
 20
19.89123938226126
 30
0.0
 11
8.903644891024455
 21
19.14123938226126
 31
0.0
  0
LINE
  5
AB
330
CA0
100
AcDbEntity
  8
0
100
AcDbLine
 10
9.967614428790723
 20
19.14123938226126
 30
0.0
 11
8.903644891024454
 21
19.14123938226126
 31
0.0
  0
LINE
  5
AC
330
CA0
100
AcDbEntity
  8
0
100
AcDbLine
 10
9.967614428790723
 20
19.89123938226126
 30
0.0
 11
8.903644891024455
 21
19.89123938226126
 31
0.0
  0
LINE
  5
B8
330
CA0
100
AcDbEntity
  8
0
100
AcDbLine
 10
6.970963299808943
 20
9.629980354229246
 30
0.0
 11
6.970963299808943
 21
3.629980354229246
 31
0.0
  0
LINE
  5
B9
330
CA0
100
AcDbEntity
  8
0
100
AcDbLine
 10
16.97096329980894
 20
9.629980354229246
 30
0.0
 11
16.97096329980894
 21
3.629980354229246
 31
0.0
  0
LINE
  5
BA
330
CA0
100
AcDbEntity
  8
0
100
AcDbLine
 10
6.970963299808943
 20
9.629980354229246
 30
0.0
 11
16.97096329980894
 21
9.629980354229246
 31
0.0
  0
LINE
  5
BB
330
CA0
100
AcDbEntity
  8
0
100
AcDbLine
 10
6.970963299808943
 20
3.629980354229246
 30
0.0
 11
16.97096329980894
 21
3.629980354229246
 31
0.0
  0
LINE
  5
BC
330
CA0
100
AcDbEntity
  8
0
  6
CENTER
100
AcDbLine
 10
11.97096329980894
 20
10.12998035422924
 30
0.0
 11
11.97096329980894
 21
3.129980354229246
 31
0.0
  0
LINE
  5
C0
330
CA0
100
AcDbEntity
  8
0
  6
CENTER
100
AcDbLine
 10
17.47096329980894
 20
6.629980354229245
 30
0.0
 11
6.470963299808943
 21
6.629980354229245
 31
0.0
  0
CIRCLE
  5
C1
330
CA0
100
AcDbEntity
  8
0
100
AcDbCircle
 10
11.97096329980894
 20
6.629980354229245
 30
0.0
 40
1.0
  0
CIRCLE
  5
C2
330
CA0
100
AcDbEntity
  8
0
100
AcDbCircle
 10
11.97096329980894
 20
6.629980354229245
 30
0.0
 40
1.5
  0
CIRCLE
  5
C3
330
CA0
100
AcDbEntity
  8
0
100
AcDbCircle
 10
11.97096329980894
 20
6.629980354229245
 30
0.0
 40
2.0
  0
LINE
  5
C8
330
CA0
100
AcDbEntity
  8
0
100
AcDbLine
 10
12.63240112757509
 20
7.379980354229244
 30
0.0
 11
11.30952547204279
 21
7.379980354229244
 31
0.0
  0
LINE
  5
C9
330
CA0
100
AcDbEntity
  8
0
100
AcDbLine
 10
12.63240112757509
 20
5.879980354229245
 30
0.0
 11
11.30952547204279
 21
5.879980354229245
 31
0.0
  0
CIRCLE
  5
CA
330
CA0
100
AcDbEntity
  8
0
100
AcDbCircle
 10
11.97096329980894
 20
6.629980354229245
 30
0.0
 40
0.5
  0
CIRCLE
  5
CB
330
CA0
100
AcDbEntity
  8
0
  6
HIDDEN
100
AcDbCircle
 10
11.97096329980894
 20
6.629980354229245
 30
0.0
 40
0.625
  0
LINE
  5
CD
330
CA0
100
AcDbEntity
  8
0
  6
CENTER
100
AcDbLine
 10
7.274829405099706
 20
8.629980354229246
 30
0.0
 11
8.667097194518177
 21
8.629980354229246
 31
0.0
  0
LINE
  5
D0
330
CA0
100
AcDbEntity
  8
0
  6
CENTER
100
AcDbLine
 10
7.970963299808942
 20
9.326114248938479
 30
0.0
 11
7.970963299808942
 21
7.933846459520013
 31
0.0
  0
CIRCLE
  5
D1
330
CA0
100
AcDbEntity
  8
0
100
AcDbCircle
 10
7.970963299808942
 20
8.629980354229246
 30
0.0
 40
0.5
  0
CIRCLE
  5
D2
330
CA0
100
AcDbEntity
  8
0
100
AcDbCircle
 10
15.97096329980893
 20
8.629980354229246
 30
0.0
 40
0.5
  0
CIRCLE
  5
D3
330
CA0
100
AcDbEntity
  8
0
100
AcDbCircle
 10
15.97096329980893
 20
4.629980354229245
 30
0.0
 40
0.5
  0
CIRCLE
  5
D4
330
CA0
100
AcDbEntity
  8
0
100
AcDbCircle
 10
7.970963299808942
 20
4.629980354229245
 30
0.0
 40
0.5
  0
LINE
  5
D6
330
CA0
100
AcDbEntity
  8
0
  6
CENTER
100
AcDbLine
 10
15.27482940509971
 20
8.629980354229246
 30
0.0
 11
16.66709719451817
 21
8.629980354229246
 31
0.0
  0
LINE
  5
D7
330
CA0
100
AcDbEntity
  8
0
  6
CENTER
100
AcDbLine
 10
15.97096329980893
 20
9.326114248938479
 30
0.0
 11
15.97096329980893
 21
7.933846459520013
 31
0.0
  0
LINE
  5
D8
330
CA0
100
AcDbEntity
  8
0
  6
CENTER
100
AcDbLine
 10
15.27482940509971
 20
4.629980354229245
 30
0.0
 11
16.66709719451817
 21
4.629980354229245
 31
0.0
  0
LINE
  5
D9
330
CA0
100
AcDbEntity
  8
0
  6
CENTER
100
AcDbLine
 10
15.97096329980893
 20
5.32611424893848
 30
0.0
 11
15.97096329980893
 21
3.933846459520012
 31
0.0
  0
LINE
  5
DA
330
CA0
100
AcDbEntity
  8
0
  6
CENTER
100
AcDbLine
 10
7.274829405099706
 20
4.629980354229245
 30
0.0
 11
8.667097194518177
 21
4.629980354229245
 31
0.0
  0
LINE
  5
DB
330
CA0
100
AcDbEntity
  8
0
  6
CENTER
100
AcDbLine
 10
7.970963299808942
 20
5.32611424893848
 30
0.0
 11
7.970963299808942
 21
3.933846459520012
 31
0.0
  0
SOLID
  5
14A
330
CA0
100
AcDbEntity
  8
0
100
AcDbTrace
 10
10.18830069551843
 20
20.49576342736873
 30
0.0
 11
9.976199697831551
 21
20.36342610542124
 31
0.0
 12
10.47926216251744
 22
19.79329177333436
 32
0.0
 13
10.47926216251744
 23
19.79329177333436
 33
0.0
  0
LINE
  5
14B
330
CA0
100
AcDbEntity
  8
0
100
AcDbLine
 10
10.08225019667499
 20
20.42959476639499
 30
0.0
 11
7.499006237553826
 21
24.56983738982984
 31
0.0
  0
LINE
  5
14C
330
CA0
100
AcDbEntity
  8
0
100
AcDbLine
 10
7.499006237553826
 20
24.56983738982984
 30
0.0
 11
6.749006237553827
 21
24.56983738982984
 31
0.0
  0
SOLID
  5
14E
330
CA0
100
AcDbEntity
  8
0
100
AcDbTrace
 10
13.02726462423817
 20
28.17209999050652
 30
0.0
 11
12.84713652312459
 21
28.34546050270354
 31
0.0
 12
12.41711903709031
 22
27.71839594326427
 32
0.0
 13
12.41711903709031
 23
27.71839594326427
 33
0.0
  0
LINE
  5
14F
330
CA0
100
AcDbEntity
  8
0
100
AcDbLine
 10
12.93720057368138
 20
28.25878024660503
 30
0.0
 11
16.32205961402042
 21
31.77577626690116
 31
0.0
  0
LINE
  5
150
330
CA0
100
AcDbEntity
  8
0
100
AcDbLine
 10
16.32205961402042
 20
31.77577626690116
 30
0.0
 11
17.07205961402042
 21
31.77577626690116
 31
0.0
  0
INSERT
  5
151
330
CA0
100
AcDbEntity
  8
0
100
AcDbBlockReference
  2
*U25
 10
0.0
 20
0.0
 30
0.0
  0
SOLID
  5
156
330
CA0
100
AcDbEntity
  8
0
100
AcDbTrace
 10
14.35622366515832
 20
33.53627716873948
 30
0.0
 11
14.16738531232908
 21
33.70010658154664
 31
0.0
 12
13.77031625032222
 22
33.05167681665532
 32
0.0
 13
13.77031625032222
 23
33.05167681665532
 33
0.0
  0
LINE
  5
157
330
CA0
100
AcDbEntity
  8
0
100
AcDbLine
 10
14.2618044887437
 20
33.61819187514305
 30
0.0
 11
17.55926848417448
 21
37.41902140105874
 31
0.0
  0
LINE
  5
158
330
CA0
100
AcDbEntity
  8
0
100
AcDbLine
 10
17.55926848417448
 20
37.41902140105874
 30
0.0
 11
18.30926848417448
 21
37.41902140105874
 31
0.0
  0
INSERT
  5
159
330
CA0
100
AcDbEntity
  8
0
100
AcDbBlockReference
  2
*U26
 10
0.0
 20
0.0
 30
0.0
  0
SOLID
  5
15A
330
CA0
100
AcDbEntity
  8
0
100
AcDbTrace
 10
12.88400096891813
 20
49.52122490238793
 30
0.0
 11
13.02141962315416
 21
49.73006961375972
 31
0.0
 12
12.32617616192084
 22
50.03790322078192
 32
0.0
 13
12.32617616192084
 23
50.03790322078192
 33
0.0
  0
LINE
  5
15B
330
CA0
100
AcDbEntity
  8
0
100
AcDbLine
 10
12.95271029603615
 20
49.62564725807382
 30
0.0
 11
17.1239641343396
 21
46.88098551791529
 31
0.0
  0
LINE
  5
15C
330
CA0
100
AcDbEntity
  8
0
100
AcDbLine
 10
17.1239641343396
 20
46.88098551791529
 30
0.0
 11
17.87396413433961
 21
46.88098551791529
 31
0.0
  0
SOLID
  5
15E
330
CA0
100
AcDbEntity
  8
0
100
AcDbTrace
 10
13.37316792758509
 20
43.00807277001113
 30
0.0
 11
13.19766329556172
 21
43.18611244013648
 31
0.0
 12
12.75129660119737
 22
42.5705787090037
 32
0.0
 13
12.75129660119737
 23
42.5705787090037
 33
0.0
  0
LINE
  5
15F
330
CA0
100
AcDbEntity
  8
0
100
AcDbLine
 10
13.2854156115734
 20
43.09709260507379
 30
0.0
 11
17.1239641343396
 21
46.88098551791529
 31
0.0
  0
LINE
  5
160
330
CA0
100
AcDbEntity
  8
0
100
AcDbLine
 10
17.1239641343396
 20
46.88098551791529
 30
0.0
 11
17.87396413433961
 21
46.88098551791529
 31
0.0
  0
SOLID
  5
161
330
CA0
100
AcDbEntity
  8
0
100
AcDbTrace
 10
12.05265185437011
 20
42.97601592258273
 30
0.0
 11
11.90402453738866
 21
43.17703811202185
 31
0.0
 12
11.37527162756203
 22
42.63064506635795
 32
0.0
 13
11.37527162756203
 23
42.63064506635795
 33
0.0
  0
LINE
  5
162
330
CA0
100
AcDbEntity
  8
0
100
AcDbLine
 10
11.97833819587938
 20
43.07652701730229
 30
0.0
 11
17.1239641343396
 21
46.88098551791529
 31
0.0
  0
LINE
  5
163
330
CA0
100
AcDbEntity
  8
0
100
AcDbLine
 10
17.1239641343396
 20
46.88098551791529
 30
0.0
 11
17.87396413433961
 21
46.88098551791529
 31
0.0
  0
SOLID
  5
1F5
330
CA0
100
AcDbEntity
  8
0
100
AcDbTrace
 10
12.56538956084701
 20
7.104092598521991
 30
0.0
 11
12.37949227831757
 21
7.271251805113107
 31
0.0
 12
11.97096329980894
 22
6.629980354229245
 32
0.0
 13
11.97096329980894
 23
6.629980354229245
 33
0.0
  0
LINE
  5
1F6
330
CA0
100
AcDbEntity
  8
0
100
AcDbLine
 10
12.47244091958229
 20
7.18767220181755
 30
0.0
 11
17.0004100556597
 21
12.22321391644708
 31
0.0
  0
LINE
  5
1F7
330
CA0
100
AcDbEntity
  8
0
100
AcDbLine
 10
17.0004100556597
 20
12.22321391644708
 30
0.0
 11
17.7504100556597
 21
12.22321391644708
 31
0.0
  0
SOLID
  5
1F9
330
CA0
100
AcDbEntity
  8
0
100
AcDbTrace
 10
16.68453663700356
 20
3.569255877698684
 30
0.0
 11
16.8891770567455
 21
3.712860538513857
 31
0.0
 12
16.35604286442901
 22
4.254979467332105
 32
0.0
 13
16.35604286442901
 23
4.254979467332105
 33
0.0
  0
LINE
  5
1FA
330
CA0
100
AcDbEntity
  8
0
100
AcDbLine
 10
16.78685684687453
 20
3.641058208106271
 30
0.0
 11
18.599395526064
 21
1.058142904366675
 31
0.0
  0
LINE
  5
1FB
330
CA0
100
AcDbEntity
  8
0
100
AcDbLine
 10
18.599395526064
 20
1.058142904366675
 30
0.0
 11
19.349395526064
 21
1.058142904366675
 31
0.0
  0
TEXT
  5
6DC
330
CA0
100
AcDbEntity
  8
TITLEBLOCK_NOTES
  6
Continuous
 62
     3
100
AcDbText
 10
35.46169887263963
 20
-5.36960521352011
 30
0.0
 40
0.455356329491287
  1
MAT'L
 41
1.067761299999999
100
AcDbText
  0
CIRCLE
  5
6DE
330
CA0
100
AcDbEntity
  8
TITLEBLOCK_NOTES
  6
Continuous
 62
     3
100
AcDbCircle
 10
37.75144038997942
 20
-8.014015529828775
 30
0.0
 40
0.2156951034432412
  0
TEXT
  5
6DF
330
CA0
100
AcDbEntity
  8
TITLEBLOCK_NOTES
  6
Continuous
 62
     3
100
AcDbText
 10
37.65128778503926
 20
-8.145231393192908
 30
0.0
 40
0.2636273486528503
  1
R
 41
1.165501169999999
100
AcDbText
  0
LINE
  5
6E0
330
CA0
100
AcDbEntity
  8
TITLEBLOCK_NOTES
  6
Continuous
 62
     3
100
AcDbLine
 10
32.88280838440245
 20
-4.524666989123306
 30
0.0
 11
32.88280838440245
 21
-7.0650759852326
 31
0.0
  0
LINE
  5
6E1
330
CA0
100
AcDbEntity
  8
TITLEBLOCK_NOTES
  6
Continuous
 62
     3
100
AcDbLine
 10
29.99786460051335
 20
-8.806357122865373
 30
0.0
 11
30.28342588837077
 21
-8.806357122865373
 31
0.0
  0
LINE
  5
6E2
330
CA0
100
AcDbEntity
  8
TITLEBLOCK_NOTES
  6
Continuous
 62
     3
100
AcDbLine
 10
29.99786460051335
 20
-8.78239100026059
 30
0.0
 11
30.29157326761483
 21
-8.78239100026059
 31
0.0
  0
LINE
  5
6E3
330
CA0
100
AcDbEntity
  8
TITLEBLOCK_NOTES
  6
Continuous
 62
     3
100
AcDbLine
 10
29.99786460051335
 20
-8.758424877655734
 30
0.0
 11
30.30209396404806
 21
-8.758424877655734
 31
0.0
  0
LINE
  5
6E4
330
CA0
100
AcDbEntity
  8
TITLEBLOCK_NOTES
  6
Continuous
 62
     3
100
AcDbLine
 10
29.99786460051335
 20
-8.83032324547023
 30
0.0
 11
30.27745420166912
 21
-8.83032324547023
 31
0.0
  0
LINE
  5
6E5
330
CA0
100
AcDbEntity
  8
TITLEBLOCK_NOTES
  6
Continuous
 62
     3
100
AcDbLine
 10
30.88461113689112
 20
-10.30471153482307
 30
0.0
 11
29.97389847790849
 21
-10.30471153482307
 31
0.0
  0
LINE
  5
6E6
330
CA0
100
AcDbEntity
  8
TITLEBLOCK_NOTES
  6
Continuous
 62
     3
100
AcDbLine
 10
30.90857725949596
 20
-10.28074541221821
 30
0.0
 11
29.99786460051335
 21
-10.28074541221821
 31
0.0
  0
LINE
  5
6E7
330
CA0
100
AcDbEntity
  8
TITLEBLOCK_NOTES
  6
Continuous
 62
     3
100
AcDbLine
 10
29.94993235530383
 20
-10.32867765742786
 30
0.0
 11
30.86064501428633
 21
-10.32867765742786
 31
0.0
  0
LINE
  5
6E8
330
CA0
100
AcDbEntity
  8
TITLEBLOCK_NOTES
  6
Continuous
 62
     3
100
AcDbLine
 10
29.99786460051335
 20
-10.11863644990051
 30
0.0
 11
30.82990064908972
 21
-10.10411321926326
 31
0.0
  0
LINE
  5
6E9
330
CA0
100
AcDbEntity
  8
TITLEBLOCK_NOTES
  6
Continuous
 62
     3
100
AcDbLine
 10
29.99786460051335
 20
-9.637835144243023
 30
0.0
 11
30.31272926647981
 21
-9.63233913714275
 31
0.0
  0
LINE
  5
6EA
330
CA0
100
AcDbEntity
  8
TITLEBLOCK_NOTES
  6
Continuous
 62
     3
100
AcDbLine
 10
29.99786460051335
 20
-9.185286062556915
 30
0.0
 11
30.51637228618749
 21
-9.185286062556915
 31
0.0
  0
LINE
  5
6EB
330
CA0
100
AcDbEntity
  8
TITLEBLOCK_NOTES
  6
Continuous
 62
     3
100
AcDbLine
 10
29.99786460051335
 20
-9.161319939952059
 30
0.0
 11
30.44236465992268
 21
-9.161319939952059
 31
0.0
  0
LINE
  5
6EC
330
CA0
100
AcDbEntity
  8
TITLEBLOCK_NOTES
  6
Continuous
 62
     3
100
AcDbLine
 10
29.99786460051335
 20
-9.137353817347271
 30
0.0
 11
30.40084287318737
 21
-9.137353817347271
 31
0.0
  0
LINE
  5
6ED
330
CA0
100
AcDbEntity
  8
TITLEBLOCK_NOTES
  6
Continuous
 62
     3
100
AcDbLine
 10
29.99786460051335
 20
-9.307593286758637
 30
0.0
 11
30.31272926647981
 21
-9.302097327590674
 31
0.0
  0
LINE
  5
6EE
330
CA0
100
AcDbEntity
  8
TITLEBLOCK_NOTES
  6
Continuous
 62
     3
100
AcDbLine
 10
29.99786460051335
 20
-9.113387694742483
 30
0.0
 11
30.37047952140789
 21
-9.113387694742483
 31
0.0
  0
LINE
  5
6EF
330
CA0
100
AcDbEntity
  8
TITLEBLOCK_NOTES
  6
Continuous
 62
     3
100
AcDbLine
 10
29.99786460051335
 20
-10.00217571337599
 30
0.0
 11
31.43800208920357
 21
-9.977037982901512
 31
0.0
  0
LINE
  5
6F0
330
CA0
100
AcDbEntity
  8
TITLEBLOCK_NOTES
  6
Continuous
 62
     3
100
AcDbLine
 10
29.99786460051335
 20
-9.982999891425203
 30
0.0
 11
31.43800208920357
 21
-9.957862160950723
 31
0.0
  0
LINE
  5
6F1
330
CA0
100
AcDbEntity
  8
TITLEBLOCK_NOTES
  6
Continuous
 62
     3
100
AcDbLine
 10
29.99786460051335
 20
-9.963824069474355
 30
0.0
 11
31.43800208920357
 21
-9.938686338999938
 31
0.0
  0
LINE
  5
6F2
330
CA0
100
AcDbEntity
  8
TITLEBLOCK_NOTES
  6
Continuous
 62
     3
100
AcDbLine
 10
29.99786460051335
 20
-9.944648247523568
 30
0.0
 11
31.43800208920357
 21
-9.919510517049085
 31
0.0
  0
LINE
  5
6F3
330
CA0
100
AcDbEntity
  8
TITLEBLOCK_NOTES
  6
Continuous
 62
     3
100
AcDbLine
 10
29.99786460051335
 20
-9.925472425572781
 30
0.0
 11
31.43800208920357
 21
-9.900334743030544
 31
0.0
  0
LINE
  5
6F4
330
CA0
100
AcDbEntity
  8
TITLEBLOCK_NOTES
  6
Continuous
 62
     3
100
AcDbLine
 10
29.99786460051335
 20
-9.906296603621994
 30
0.0
 11
31.43800208920357
 21
-9.881158921079757
 31
0.0
  0
LINE
  5
6F5
330
CA0
100
AcDbEntity
  8
TITLEBLOCK_NOTES
  6
Continuous
 62
     3
100
AcDbLine
 10
29.99786460051335
 20
-9.887120781671139
 30
0.0
 11
31.43800208920357
 21
-9.86198309912897
 31
0.0
  0
LINE
  5
6F6
330
CA0
100
AcDbEntity
  8
TITLEBLOCK_NOTES
  6
Continuous
 62
     3
100
AcDbLine
 10
29.99786460051335
 20
-9.867944959720354
 30
0.0
 11
31.43800208920357
 21
-9.842807277178179
 31
0.0
  0
LINE
  5
6F7
330
CA0
100
AcDbEntity
  8
TITLEBLOCK_NOTES
  6
Continuous
 62
     3
100
AcDbLine
 10
29.99786460051335
 20
-9.848769137769565
 30
0.0
 11
31.43800208920357
 21
-9.823631455227332
 31
0.0
  0
LINE
  5
6F8
330
CA0
100
AcDbEntity
  8
TITLEBLOCK_NOTES
  6
Continuous
 62
     3
100
AcDbLine
 10
29.99786460051335
 20
-9.82959331581878
 30
0.0
 11
31.43800208920357
 21
-9.804455633276543
 31
0.0
  0
LINE
  5
6F9
330
CA0
100
AcDbEntity
  8
TITLEBLOCK_NOTES
  6
Continuous
 62
     3
100
AcDbLine
 10
29.99786460051335
 20
-9.810417493867991
 30
0.0
 11
31.43800208920357
 21
-9.785279811325755
 31
0.0
  0
LINE
  5
6FA
330
CA0
100
AcDbEntity
  8
TITLEBLOCK_NOTES
  6
Continuous
 62
     3
100
AcDbLine
 10
29.99786460051335
 20
-9.79124167191714
 30
0.0
 11
31.43800208920357
 21
-9.766103989374968
 31
0.0
  0
LINE
  5
6FB
330
CA0
100
AcDbEntity
  8
TITLEBLOCK_NOTES
  6
Continuous
 62
     3
100
AcDbLine
 10
29.99786460051335
 20
-9.772065849966352
 30
0.0
 11
31.43800208920357
 21
-9.746928167424114
 31
0.0
  0
LINE
  5
6FC
330
CA0
100
AcDbEntity
  8
TITLEBLOCK_NOTES
  6
Continuous
 62
     3
100
AcDbLine
 10
29.99786460051335
 20
-9.752890028015567
 30
0.0
 11
31.43800208920357
 21
-9.727752345473328
 31
0.0
  0
LINE
  5
6FD
330
CA0
100
AcDbEntity
  8
TITLEBLOCK_NOTES
  6
Continuous
 62
     3
100
AcDbLine
 10
29.99786460051335
 20
-9.733714206064776
 30
0.0
 11
31.43800208920357
 21
-9.708576523522541
 31
0.0
  0
LINE
  5
6FE
330
CA0
100
AcDbEntity
  8
TITLEBLOCK_NOTES
  6
Continuous
 62
     3
100
AcDbLine
 10
29.99786460051335
 20
-9.714538432046172
 30
0.0
 11
31.43800208920357
 21
-9.689400701571754
 31
0.0
  0
LINE
  5
6FF
330
CA0
100
AcDbEntity
  8
TITLEBLOCK_NOTES
  6
Continuous
 62
     3
100
AcDbLine
 10
29.99786460051335
 20
-9.695362610095383
 30
0.0
 11
31.43800208920357
 21
-9.670224879620967
 31
0.0
  0
LINE
  5
700
330
CA0
100
AcDbEntity
  8
TITLEBLOCK_NOTES
  6
Continuous
 62
     3
100
AcDbLine
 10
29.99786460051335
 20
-9.676186788144594
 30
0.0
 11
31.43800208920357
 21
-9.651049057670178
 31
0.0
  0
LINE
  5
701
330
CA0
100
AcDbEntity
  8
TITLEBLOCK_NOTES
  6
Continuous
 62
     3
100
AcDbLine
 10
31.43800208920357
 20
-10.00975840283913
 30
0.0
 11
29.99786460051335
 21
-10.00975840283913
 31
0.0
  0
LINE
  5
702
330
CA0
100
AcDbEntity
  8
TITLEBLOCK_NOTES
  6
Continuous
 62
     3
100
AcDbLine
 10
31.43800208920357
 20
-9.63233913714275
 30
0.0
 11
29.99786460051335
 21
-9.63233913714275
 31
0.0
  0
LINE
  5
703
330
CA0
100
AcDbEntity
  8
TITLEBLOCK_NOTES
  6
Continuous
 62
     3
100
AcDbLine
 10
29.99786460051335
 20
-10.27204302550694
 30
0.0
 11
31.43800208920357
 21
-10.24690529503246
 31
0.0
  0
LINE
  5
704
330
CA0
100
AcDbEntity
  8
TITLEBLOCK_NOTES
  6
Continuous
 62
     3
100
AcDbLine
 10
29.99786460051335
 20
-10.25286720355615
 30
0.0
 11
31.43800208920357
 21
-10.22772952101392
 31
0.0
  0
LINE
  5
705
330
CA0
100
AcDbEntity
  8
TITLEBLOCK_NOTES
  6
Continuous
 62
     3
100
AcDbLine
 10
29.99786460051335
 20
-10.23369138160536
 30
0.0
 11
31.43800208920357
 21
-10.20855369906312
 31
0.0
  0
LINE
  5
706
330
CA0
100
AcDbEntity
  8
TITLEBLOCK_NOTES
  6
Continuous
 62
     3
100
AcDbLine
 10
29.99786460051335
 20
-10.21451555965458
 30
0.0
 11
31.43800208920357
 21
-10.18937787711234
 31
0.0
  0
LINE
  5
707
330
CA0
100
AcDbEntity
  8
TITLEBLOCK_NOTES
  6
Continuous
 62
     3
100
AcDbLine
 10
29.99786460051335
 20
-10.19533973770373
 30
0.0
 11
31.43800208920357
 21
-10.17020205516155
 31
0.0
  0
LINE
  5
708
330
CA0
100
AcDbEntity
  8
TITLEBLOCK_NOTES
  6
Continuous
 62
     3
100
AcDbLine
 10
29.99786460051335
 20
-10.17616391575294
 30
0.0
 11
31.43800208920357
 21
-10.1510262332107
 31
0.0
  0
LINE
  5
709
330
CA0
100
AcDbEntity
  8
TITLEBLOCK_NOTES
  6
Continuous
 62
     3
100
AcDbLine
 10
29.99786460051335
 20
-10.15698809380215
 30
0.0
 11
31.43800208920357
 21
-10.13185041125991
 31
0.0
  0
LINE
  5
70A
330
CA0
100
AcDbEntity
  8
TITLEBLOCK_NOTES
  6
Continuous
 62
     3
100
AcDbLine
 10
29.99786460051335
 20
-10.13781227185136
 30
0.0
 11
31.43800208920357
 21
-10.11267458930913
 31
0.0
  0
LINE
  5
70B
330
CA0
100
AcDbEntity
  8
TITLEBLOCK_NOTES
  6
Continuous
 62
     3
100
AcDbLine
 10
31.43800208920357
 20
-10.10411321926326
 30
0.0
 11
29.99786460051335
 21
-10.10411321926326
 31
0.0
  0
LINE
  5
70C
330
CA0
100
AcDbEntity
  8
TITLEBLOCK_NOTES
  6
Continuous
 62
     3
100
AcDbLine
 10
29.99786460051335
 20
-9.65701096619381
 30
0.0
 11
31.41131121018747
 21
-9.63233913714275
 31
0.0
  0
LINE
  5
70D
330
CA0
100
AcDbEntity
  8
TITLEBLOCK_NOTES
  6
Continuous
 62
     3
100
AcDbLine
 10
29.99786460051335
 20
-9.460999814432822
 30
0.0
 11
31.43800208920357
 21
-9.435862131890582
 31
0.0
  0
LINE
  5
70E
330
CA0
100
AcDbEntity
  8
TITLEBLOCK_NOTES
  6
Continuous
 62
     3
100
AcDbLine
 10
29.99786460051335
 20
-9.441824040414278
 30
0.0
 11
31.43800208920357
 21
-9.416686309939795
 31
0.0
  0
LINE
  5
70F
330
CA0
100
AcDbEntity
  8
TITLEBLOCK_NOTES
  6
Continuous
 62
     3
100
AcDbLine
 10
29.99786460051335
 20
-9.422648218463422
 30
0.0
 11
31.43800208920357
 21
-9.397510487989007
 31
0.0
  0
LINE
  5
710
330
CA0
100
AcDbEntity
  8
TITLEBLOCK_NOTES
  6
Continuous
 62
     3
100
AcDbLine
 10
29.99786460051335
 20
-9.403472396512636
 30
0.0
 11
31.43800208920357
 21
-9.378334666038222
 31
0.0
  0
LINE
  5
711
330
CA0
100
AcDbEntity
  8
TITLEBLOCK_NOTES
  6
Continuous
 62
     3
100
AcDbLine
 10
29.99786460051335
 20
-9.384296574561847
 30
0.0
 11
31.43800208920357
 21
-9.359158892019678
 31
0.0
  0
LINE
  5
712
330
CA0
100
AcDbEntity
  8
TITLEBLOCK_NOTES
  6
Continuous
 62
     3
100
AcDbLine
 10
29.99786460051335
 20
-9.365120752611062
 30
0.0
 11
31.43800208920357
 21
-9.339983070068829
 31
0.0
  0
LINE
  5
713
330
CA0
100
AcDbEntity
  8
TITLEBLOCK_NOTES
  6
Continuous
 62
     3
100
AcDbLine
 10
29.99786460051335
 20
-9.345944930660275
 30
0.0
 11
31.43800208920357
 21
-9.320807248118034
 31
0.0
  0
LINE
  5
714
330
CA0
100
AcDbEntity
  8
TITLEBLOCK_NOTES
  6
Continuous
 62
     3
100
AcDbLine
 10
31.43800208920357
 20
-9.302097327590674
 30
0.0
 11
29.99786460051335
 21
-9.302097327590674
 31
0.0
  0
LINE
  5
715
330
CA0
100
AcDbEntity
  8
TITLEBLOCK_NOTES
  6
Continuous
 62
     3
100
AcDbLine
 10
31.43800208920357
 20
-9.207742511166614
 30
0.0
 11
29.99786460051335
 21
-9.207742511166614
 31
0.0
  0
LINE
  5
716
330
CA0
100
AcDbEntity
  8
TITLEBLOCK_NOTES
  6
Continuous
 62
     3
100
AcDbLine
 10
29.99786460051335
 20
-9.326769108709424
 30
0.0
 11
31.41131121018747
 21
-9.302097327590674
 31
0.0
  0
LINE
  5
717
330
CA0
100
AcDbEntity
  8
TITLEBLOCK_NOTES
  6
Continuous
 62
     3
100
AcDbLine
 10
29.99786460051335
 20
-9.537703102236035
 30
0.0
 11
31.43800208920357
 21
-9.5125654196938
 31
0.0
  0
LINE
  5
718
330
CA0
100
AcDbEntity
  8
TITLEBLOCK_NOTES
  6
Continuous
 62
     3
100
AcDbLine
 10
29.99786460051335
 20
-9.518527280285248
 30
0.0
 11
31.43800208920357
 21
-9.493389597743011
 31
0.0
  0
LINE
  5
719
330
CA0
100
AcDbEntity
  8
TITLEBLOCK_NOTES
  6
Continuous
 62
     3
100
AcDbLine
 10
29.99786460051335
 20
-9.49935145833446
 30
0.0
 11
31.43800208920357
 21
-9.474213775792224
 31
0.0
  0
LINE
  5
71A
330
CA0
100
AcDbEntity
  8
TITLEBLOCK_NOTES
  6
Continuous
 62
     3
100
AcDbLine
 10
31.43800208920357
 20
-9.537984320718685
 30
0.0
 11
29.99786460051335
 21
-9.537984320718685
 31
0.0
  0
LINE
  5
71B
330
CA0
100
AcDbEntity
  8
TITLEBLOCK_NOTES
  6
Continuous
 62
     3
100
AcDbLine
 10
29.99786460051335
 20
-9.480175636383609
 30
0.0
 11
31.43800208920357
 21
-9.455037953841372
 31
0.0
  0
LINE
  5
71C
330
CA0
100
AcDbEntity
  8
TITLEBLOCK_NOTES
  6
Continuous
 62
     3
100
AcDbLine
 10
29.5664743936269
 20
-10.71213561910473
 30
0.0
 11
30.88461113689112
 21
-10.71213561910473
 31
0.0
  0
LINE
  5
71D
330
CA0
100
AcDbEntity
  8
TITLEBLOCK_NOTES
  6
Continuous
 62
     3
100
AcDbLine
 10
29.54250827102203
 20
-10.73610174170952
 30
0.0
 11
30.90857725949596
 21
-10.73610174170952
 31
0.0
  0
LINE
  5
71E
330
CA0
100
AcDbEntity
  8
TITLEBLOCK_NOTES
  6
Continuous
 62
     3
100
AcDbLine
 10
29.59044051623161
 20
-10.68816949649988
 30
0.0
 11
30.86064501428633
 21
-10.68816949649988
 31
0.0
  0
LINE
  5
71F
330
CA0
100
AcDbEntity
  8
TITLEBLOCK_NOTES
  6
Continuous
 62
     3
100
AcDbLine
 10
29.5664743936269
 20
-8.55518458467232
 30
0.0
 11
29.97389847790849
 21
-8.55518458467232
 31
0.0
  0
LINE
  5
720
330
CA0
100
AcDbEntity
  8
TITLEBLOCK_NOTES
  6
Continuous
 62
     3
100
AcDbLine
 10
29.54250827102203
 20
-8.531218462067469
 30
0.0
 11
29.99786460051335
 21
-8.531218462067469
 31
0.0
  0
LINE
  5
721
330
CA0
100
AcDbEntity
  8
TITLEBLOCK_NOTES
  6
Continuous
 62
     3
100
AcDbLine
 10
29.59044051623161
 20
-8.579150707277106
 30
0.0
 11
29.94993235530383
 21
-8.579150707277106
 31
0.0
  0
LINE
  5
722
330
CA0
100
AcDbEntity
  8
TITLEBLOCK_NOTES
  6
Continuous
 62
     3
100
AcDbLine
 10
29.97389847790849
 20
-10.30471153482307
 30
0.0
 11
29.97389847790849
 21
-8.55518458467232
 31
0.0
  0
LINE
  5
723
330
CA0
100
AcDbEntity
  8
TITLEBLOCK_NOTES
  6
Continuous
 62
     3
100
AcDbLine
 10
29.99786460051335
 20
-10.28074541221821
 30
0.0
 11
29.99786460051335
 21
-8.531218462067469
 31
0.0
  0
LINE
  5
724
330
CA0
100
AcDbEntity
  8
TITLEBLOCK_NOTES
  6
Continuous
 62
     3
100
AcDbLine
 10
29.94993235530383
 20
-8.579150707277106
 30
0.0
 11
29.94993235530383
 21
-10.32867765742786
 31
0.0
  0
LINE
  5
725
330
CA0
100
AcDbEntity
  8
TITLEBLOCK_NOTES
  6
Continuous
 62
     3
100
AcDbLine
 10
29.5664743936269
 20
-8.55518458467232
 30
0.0
 11
29.5664743936269
 21
-10.71213561910473
 31
0.0
  0
LINE
  5
726
330
CA0
100
AcDbEntity
  8
TITLEBLOCK_NOTES
  6
Continuous
 62
     3
100
AcDbLine
 10
29.54250827102203
 20
-8.531218462067469
 30
0.0
 11
29.54250827102203
 21
-10.73610174170952
 31
0.0
  0
LINE
  5
727
330
CA0
100
AcDbEntity
  8
TITLEBLOCK_NOTES
  6
Continuous
 62
     3
100
AcDbLine
 10
29.59044051623161
 20
-10.68816949649988
 30
0.0
 11
29.59044051623161
 21
-8.579150707277106
 31
0.0
  0
LINE
  5
728
330
CA0
100
AcDbEntity
  8
TITLEBLOCK_NOTES
  6
Continuous
 62
     3
100
AcDbLine
 10
31.43800208920357
 20
-8.806357122865373
 30
0.0
 11
30.85833683701828
 21
-8.806357122865373
 31
0.0
  0
LINE
  5
729
330
CA0
100
AcDbEntity
  8
TITLEBLOCK_NOTES
  6
Continuous
 62
     3
100
AcDbLine
 10
31.43800208920357
 20
-8.78239100026059
 30
0.0
 11
30.85018945777415
 21
-8.78239100026059
 31
0.0
  0
LINE
  5
72A
330
CA0
100
AcDbEntity
  8
TITLEBLOCK_NOTES
  6
Continuous
 62
     3
100
AcDbLine
 10
31.43800208920357
 20
-8.758424877655734
 30
0.0
 11
30.839668761341
 21
-8.758424877655734
 31
0.0
  0
LINE
  5
72B
330
CA0
100
AcDbEntity
  8
TITLEBLOCK_NOTES
  6
Continuous
 62
     3
100
AcDbLine
 10
31.43800208920357
 20
-8.83032324547023
 30
0.0
 11
30.86430852371988
 21
-8.83032324547023
 31
0.0
  0
LINE
  5
72C
330
CA0
100
AcDbEntity
  8
TITLEBLOCK_NOTES
  6
Continuous
 62
     3
100
AcDbLine
 10
30.66203301096813
 20
-10.00975840283913
 30
0.0
 11
31.43800208920357
 21
-9.996213804852301
 31
0.0
  0
LINE
  5
72D
330
CA0
100
AcDbEntity
  8
TITLEBLOCK_NOTES
  6
Continuous
 62
     3
100
AcDbLine
 10
31.43800208920357
 20
-9.137353817347271
 30
0.0
 11
30.74091985220177
 21
-9.137353817347271
 31
0.0
  0
LINE
  5
72E
330
CA0
100
AcDbEntity
  8
TITLEBLOCK_NOTES
  6
Continuous
 62
     3
100
AcDbLine
 10
31.43800208920357
 20
-9.113387694742483
 30
0.0
 11
30.77128320398131
 21
-9.113387694742483
 31
0.0
  0
LINE
  5
72F
330
CA0
100
AcDbEntity
  8
TITLEBLOCK_NOTES
  6
Continuous
 62
     3
100
AcDbLine
 10
31.43800208920357
 20
-9.161319939952059
 30
0.0
 11
30.69939806546649
 21
-9.161319939952059
 31
0.0
  0
LINE
  5
730
330
CA0
100
AcDbEntity
  8
TITLEBLOCK_NOTES
  6
Continuous
 62
     3
100
AcDbLine
 10
31.43800208920357
 20
-9.185286062556915
 30
0.0
 11
30.62539043920157
 21
-9.185286062556915
 31
0.0
  0
LINE
  5
731
330
CA0
100
AcDbEntity
  8
TITLEBLOCK_NOTES
  6
Continuous
 62
     3
100
AcDbLine
 10
31.08033507863874
 20
-9.537984320718685
 30
0.0
 11
31.43800208920357
 21
-9.531741241644652
 31
0.0
  0
LINE
  5
732
330
CA0
100
AcDbEntity
  8
TITLEBLOCK_NOTES
  6
Continuous
 62
     3
100
AcDbLine
 10
30.90857725949596
 20
-10.42872883773712
 30
0.0
 11
31.43800208920357
 21
-10.41948769258967
 31
0.0
  0
LINE
  5
733
330
CA0
100
AcDbEntity
  8
TITLEBLOCK_NOTES
  6
Continuous
 62
     3
100
AcDbLine
 10
30.90857725949596
 20
-10.40955301578633
 30
0.0
 11
31.43800208920357
 21
-10.40031187063888
 31
0.0
  0
LINE
  5
734
330
CA0
100
AcDbEntity
  8
TITLEBLOCK_NOTES
  6
Continuous
 62
     3
100
AcDbLine
 10
30.90857725949596
 20
-10.39037719383554
 30
0.0
 11
31.43800208920357
 21
-10.3811360486881
 31
0.0
  0
LINE
  5
735
330
CA0
100
AcDbEntity
  8
TITLEBLOCK_NOTES
  6
Continuous
 62
     3
100
AcDbLine
 10
30.90857725949596
 20
-10.37120137188476
 30
0.0
 11
31.43800208920357
 21
-10.36196022673731
 31
0.0
  0
LINE
  5
736
330
CA0
100
AcDbEntity
  8
TITLEBLOCK_NOTES
  6
Continuous
 62
     3
100
AcDbLine
 10
30.90857725949596
 20
-10.3520255499339
 30
0.0
 11
31.43800208920357
 21
-10.34278440478646
 31
0.0
  0
LINE
  5
737
330
CA0
100
AcDbEntity
  8
TITLEBLOCK_NOTES
  6
Continuous
 62
     3
100
AcDbLine
 10
30.90857725949596
 20
-10.33284972798312
 30
0.0
 11
31.43800208920357
 21
-10.32360858283568
 31
0.0
  0
LINE
  5
738
330
CA0
100
AcDbEntity
  8
TITLEBLOCK_NOTES
  6
Continuous
 62
     3
100
AcDbLine
 10
30.90857725949596
 20
-10.31367390603233
 30
0.0
 11
31.43800208920357
 21
-10.30443276088489
 31
0.0
  0
LINE
  5
739
330
CA0
100
AcDbEntity
  8
TITLEBLOCK_NOTES
  6
Continuous
 62
     3
100
AcDbLine
 10
30.90857725949596
 20
-10.29449808408154
 30
0.0
 11
31.43800208920357
 21
-10.2852569389341
 31
0.0
  0
LINE
  5
73A
330
CA0
100
AcDbEntity
  8
TITLEBLOCK_NOTES
  6
Continuous
 62
     3
100
AcDbLine
 10
30.90857725949596
 20
-10.54378372150966
 30
0.0
 11
31.43800208920357
 21
-10.53454257636228
 31
0.0
  0
LINE
  5
73B
330
CA0
100
AcDbEntity
  8
TITLEBLOCK_NOTES
  6
Continuous
 62
     3
100
AcDbLine
 10
30.90857725949596
 20
-10.52460794749112
 30
0.0
 11
31.43800208920357
 21
-10.51536680234367
 31
0.0
  0
LINE
  5
73C
330
CA0
100
AcDbEntity
  8
TITLEBLOCK_NOTES
  6
Continuous
 62
     3
100
AcDbLine
 10
30.90857725949596
 20
-10.50543212554034
 30
0.0
 11
31.43800208920357
 21
-10.49619098039289
 31
0.0
  0
LINE
  5
73D
330
CA0
100
AcDbEntity
  8
TITLEBLOCK_NOTES
  6
Continuous
 62
     3
100
AcDbLine
 10
30.90857725949596
 20
-10.48625630358955
 30
0.0
 11
31.43800208920357
 21
-10.4770151584421
 31
0.0
  0
LINE
  5
73E
330
CA0
100
AcDbEntity
  8
TITLEBLOCK_NOTES
  6
Continuous
 62
     3
100
AcDbLine
 10
30.90857725949596
 20
-10.46708048163876
 30
0.0
 11
31.43800208920357
 21
-10.45783933649131
 31
0.0
  0
LINE
  5
73F
330
CA0
100
AcDbEntity
  8
TITLEBLOCK_NOTES
  6
Continuous
 62
     3
100
AcDbLine
 10
30.90857725949596
 20
-10.44790465968791
 30
0.0
 11
31.43800208920357
 21
-10.43866351454052
 31
0.0
  0
LINE
  5
740
330
CA0
100
AcDbEntity
  8
TITLEBLOCK_NOTES
  6
Continuous
 62
     3
100
AcDbLine
 10
30.90857725949596
 20
-10.5821353654113
 30
0.0
 11
31.43800208920357
 21
-10.57289422026386
 31
0.0
  0
LINE
  5
741
330
CA0
100
AcDbEntity
  8
TITLEBLOCK_NOTES
  6
Continuous
 62
     3
100
AcDbLine
 10
30.90857725949596
 20
-10.56295954346045
 30
0.0
 11
31.43800208920357
 21
-10.55371839831307
 31
0.0
  0
LINE
  5
742
330
CA0
100
AcDbEntity
  8
TITLEBLOCK_NOTES
  6
Continuous
 62
     3
100
AcDbLine
 10
30.59788533513632
 20
-10.28074541221821
 30
0.0
 11
31.43800208920357
 21
-10.26608111698325
 31
0.0
  0
TEXT
  5
743
330
CA0
100
AcDbEntity
  8
TITLEBLOCK_NOTES
  6
Continuous
 62
     3
100
AcDbText
 10
30.96678761604581
 20
-9.037135736960159
 30
0.0
 40
0.1198306130240229
  1
INC.
 41
1.282051279999999
100
AcDbText
  0
TEXT
  5
744
330
CA0
100
AcDbEntity
  8
TITLEBLOCK_NOTES
  6
Continuous
 62
     3
100
AcDbText
 10
30.42118761880209
 20
-9.076433611314447
 30
0.0
 40
0.3594918390720687
  1
R
 41
1.1965812
100
AcDbText
  0
CIRCLE
  5
745
330
CA0
100
AcDbEntity
  8
TITLEBLOCK_NOTES
  6
Continuous
 62
     3
100
AcDbCircle
 10
30.57088136269449
 20
-8.890710301139554
 30
0.0
 40
0.2995765325600573
  0
LINE
  5
746
330
CA0
100
AcDbEntity
  8
TITLEBLOCK_NOTES
  6
Continuous
 62
     3
100
AcDbLine
 10
30.90857725949596
 20
-10.73554194101773
 30
0.0
 11
31.43800208920357
 21
-10.72630079587029
 31
0.0
  0
LINE
  5
747
330
CA0
100
AcDbEntity
  8
TITLEBLOCK_NOTES
  6
Continuous
 62
     3
100
AcDbLine
 10
30.90857725949596
 20
-10.71636611906695
 30
0.0
 11
31.43800208920357
 21
-10.70712497391943
 31
0.0
  0
LINE
  5
748
330
CA0
100
AcDbEntity
  8
TITLEBLOCK_NOTES
  6
Continuous
 62
     3
100
AcDbLine
 10
30.90857725949596
 20
-10.69719029711609
 30
0.0
 11
31.43800208920357
 21
-10.68794915196865
 31
0.0
  0
LINE
  5
749
330
CA0
100
AcDbEntity
  8
TITLEBLOCK_NOTES
  6
Continuous
 62
     3
100
AcDbLine
 10
30.90857725949596
 20
-10.67801447516531
 30
0.0
 11
31.43800208920357
 21
-10.66877333001786
 31
0.0
  0
LINE
  5
74A
330
CA0
100
AcDbEntity
  8
TITLEBLOCK_NOTES
  6
Continuous
 62
     3
100
AcDbLine
 10
30.90857725949596
 20
-10.65883865321452
 30
0.0
 11
31.43800208920357
 21
-10.64959750806707
 31
0.0
  0
LINE
  5
74B
330
CA0
100
AcDbEntity
  8
TITLEBLOCK_NOTES
  6
Continuous
 62
     3
100
AcDbLine
 10
30.90857725949596
 20
-10.63966283126372
 30
0.0
 11
31.43800208920357
 21
-10.63042168611628
 31
0.0
  0
LINE
  5
74C
330
CA0
100
AcDbEntity
  8
TITLEBLOCK_NOTES
  6
Continuous
 62
     3
100
AcDbLine
 10
30.90857725949596
 20
-10.62048700931294
 30
0.0
 11
31.43800208920357
 21
-10.61124586416543
 31
0.0
  0
LINE
  5
74D
330
CA0
100
AcDbEntity
  8
TITLEBLOCK_NOTES
  6
Continuous
 62
     3
100
AcDbLine
 10
30.90857725949596
 20
-10.60131118736209
 30
0.0
 11
31.43800208920357
 21
-10.59207004221464
 31
0.0
  0
LINE
  5
74E
330
CA0
100
AcDbEntity
  8
TITLEBLOCK_NOTES
  6
Continuous
 62
     3
100
AcDbLine
 10
30.60457811453486
 20
-11.04766133557197
 30
0.0
 11
31.43800208920357
 21
-11.03311389915083
 31
0.0
  0
LINE
  5
74F
330
CA0
100
AcDbEntity
  8
TITLEBLOCK_NOTES
  6
Continuous
 62
     3
100
AcDbLine
 10
30.86064501428633
 20
-10.68816949649988
 30
0.0
 11
30.86064501428633
 21
-10.32867765742786
 31
0.0
  0
LINE
  5
750
330
CA0
100
AcDbEntity
  8
TITLEBLOCK_NOTES
  6
Continuous
 62
     3
100
AcDbLine
 10
30.88461113689112
 20
-10.71213561910473
 30
0.0
 11
30.88461113689112
 21
-10.30471153482307
 31
0.0
  0
LINE
  5
751
330
CA0
100
AcDbEntity
  8
TITLEBLOCK_NOTES
  6
Continuous
 62
     3
100
AcDbLine
 10
30.90857725949596
 20
-10.73610174170952
 30
0.0
 11
30.90857725949596
 21
-10.28074541221821
 31
0.0
  0
LINE
  5
752
330
CA0
100
AcDbEntity
  8
TITLEBLOCK_NOTES
  6
Continuous
 62
     3
100
AcDbLine
 10
27.88483707203047
 20
-4.638163579754131
 30
0.0
 11
27.88483707203047
 21
-7.178572575863427
 31
0.0
  0
LINE
  5
753
330
CA0
100
AcDbEntity
  8
TITLEBLOCK_NOTES
  6
Continuous
 62
     3
100
AcDbLine
 10
24.21985887242135
 20
-7.084759189556687
 30
0.0
 11
24.21985887242135
 21
-4.544350193447391
 31
0.0
  0
TEXT
  5
754
330
CA0
100
AcDbEntity
  8
TITLEBLOCK_NOTES
  6
Continuous
 62
     3
100
AcDbText
 10
25.44952135347397
 20
-6.675901419297024
 30
0.0
 40
0.5991530651201146
  1
G.S.
 41
0.5
100
AcDbText
  0
TEXT
  5
755
330
CA0
100
AcDbEntity
  8
TITLEBLOCK_NOTES
  6
Continuous
 62
     3
100
AcDbText
 10
24.82275586599512
 20
-5.378123784120941
 30
0.0
 40
0.455356329491287
  1
DRAWN
 41
1.02320484
100
AcDbText
  0
LINE
  5
756
330
CA0
100
AcDbEntity
  8
TITLEBLOCK_NOTES
  6
Continuous
 62
     3
100
AcDbLine
 10
26.68600739967236
 20
-9.537984320718685
 30
0.0
 11
28.14311343042127
 21
-9.512550464833303
 31
0.0
  0
LINE
  5
757
330
CA0
100
AcDbEntity
  8
TITLEBLOCK_NOTES
  6
Continuous
 62
     3
100
AcDbLine
 10
27.091338762128
 20
-10.72546878795795
 30
0.0
 11
28.34420214078178
 21
-10.70359998867451
 31
0.0
  0
LINE
  5
758
330
CA0
100
AcDbEntity
  8
TITLEBLOCK_NOTES
  6
Continuous
 62
     3
100
AcDbLine
 10
27.18891285193712
 20
-10.70458983747035
 30
0.0
 11
28.34420214078178
 21
-10.68442416672373
 31
0.0
  0
LINE
  5
759
330
CA0
100
AcDbEntity
  8
TITLEBLOCK_NOTES
  6
Continuous
 62
     3
100
AcDbLine
 10
27.25342620286772
 20
-10.6842878953506
 30
0.0
 11
28.34420214078178
 21
-10.66524834477294
 31
0.0
  0
LINE
  5
75A
330
CA0
100
AcDbEntity
  8
TITLEBLOCK_NOTES
  6
Continuous
 62
     3
100
AcDbLine
 10
27.30459689436036
 20
-10.66421890394252
 30
0.0
 11
28.34420214078178
 21
-10.64607252282209
 31
0.0
  0
LINE
  5
75B
330
CA0
100
AcDbEntity
  8
TITLEBLOCK_NOTES
  6
Continuous
 62
     3
100
AcDbLine
 10
27.34789437905169
 20
-10.64428733428151
 30
0.0
 11
28.34420214078178
 21
-10.6268967008713
 31
0.0
  0
LINE
  5
75C
330
CA0
100
AcDbEntity
  8
TITLEBLOCK_NOTES
  6
Continuous
 62
     3
100
AcDbLine
 10
26.72291532434817
 20
-10.21415256876156
 30
0.0
 11
27.19812667570485
 21
-10.20585770199907
 31
0.0
  0
LINE
  5
75D
330
CA0
100
AcDbEntity
  8
TITLEBLOCK_NOTES
  6
Continuous
 62
     3
100
AcDbLine
 10
26.69552530560359
 20
-10.19545482302451
 30
0.0
 11
27.22484746444187
 21
-10.18621545137011
 31
0.0
  0
LINE
  5
75E
330
CA0
100
AcDbEntity
  8
TITLEBLOCK_NOTES
  6
Continuous
 62
     3
100
AcDbLine
 10
26.67192898027054
 20
-10.17669088285676
 30
0.0
 11
27.24777455976727
 21
-10.16663944310408
 31
0.0
  0
LINE
  5
75F
330
CA0
100
AcDbEntity
  8
TITLEBLOCK_NOTES
  6
Continuous
 62
     3
100
AcDbLine
 10
26.85531981152902
 20
-10.26936888554672
 30
0.0
 11
27.06772987854677
 21
-10.26566123051524
 31
0.0
  0
LINE
  5
760
330
CA0
100
AcDbEntity
  8
TITLEBLOCK_NOTES
  6
Continuous
 62
     3
100
AcDbLine
 10
26.79665007234101
 20
-10.25121713601484
 30
0.0
 11
27.12573038772719
 21
-10.24547303161335
 31
0.0
  0
LINE
  5
761
330
CA0
100
AcDbEntity
  8
TITLEBLOCK_NOTES
  6
Continuous
 62
     3
100
AcDbLine
 10
26.75559370770674
 20
-10.23275794906214
 30
0.0
 11
27.16611752235393
 21
-10.22559227013227
 31
0.0
  0
LINE
  5
762
330
CA0
100
AcDbEntity
  8
TITLEBLOCK_NOTES
  6
Continuous
 62
     3
100
AcDbLine
 10
26.65126630007325
 20
-10.15787575105119
 30
0.0
 11
27.26776805788914
 21
-10.14711467440819
 31
0.0
  0
LINE
  5
763
330
CA0
100
AcDbEntity
  8
TITLEBLOCK_NOTES
  6
Continuous
 62
     3
100
AcDbLine
 10
26.63298824907535
 20
-10.13901896612452
 30
0.0
 11
27.28537683094734
 21
-10.12763146296883
 31
0.0
  0
LINE
  5
764
330
CA0
100
AcDbEntity
  8
TITLEBLOCK_NOTES
  6
Continuous
 62
     3
100
AcDbLine
 10
26.61671956572865
 20
-10.12012709479432
 30
0.0
 11
27.30097633221837
 21
-10.10818338586525
 31
0.0
  0
LINE
  5
765
330
CA0
100
AcDbEntity
  8
TITLEBLOCK_NOTES
  6
Continuous
 62
     3
100
AcDbLine
 10
26.64368639068037
 20
-9.113387694742483
 30
0.0
 11
27.26464762079358
 21
-9.113387694742483
 31
0.0
  0
LINE
  5
766
330
CA0
100
AcDbEntity
  8
TITLEBLOCK_NOTES
  6
Continuous
 62
     3
100
AcDbLine
 10
26.62142181484825
 20
-9.137353817347271
 30
0.0
 11
27.28691219662582
 21
-9.137353817347271
 31
0.0
  0
LINE
  5
767
330
CA0
100
AcDbEntity
  8
TITLEBLOCK_NOTES
  6
Continuous
 62
     3
100
AcDbLine
 10
28.94354669522158
 20
-8.55518458467232
 30
0.0
 11
29.38720717342372
 21
-8.55518458467232
 31
0.0
  0
LINE
  5
768
330
CA0
100
AcDbEntity
  8
TITLEBLOCK_NOTES
  6
Continuous
 62
     3
100
AcDbLine
 10
29.42363505666385
 20
-8.531218462067469
 30
0.0
 11
28.92777928729541
 21
-8.531218462067469
 31
0.0
  0
LINE
  5
769
330
CA0
100
AcDbEntity
  8
TITLEBLOCK_NOTES
  6
Continuous
 62
     3
100
AcDbLine
 10
28.80918503860427
 20
-8.806357122865373
 30
0.0
 11
28.33457552451837
 21
-8.806357122865373
 31
0.0
  0
LINE
  5
76A
330
CA0
100
AcDbEntity
  8
TITLEBLOCK_NOTES
  6
Continuous
 62
     3
100
AcDbLine
 10
28.81951525229506
 20
-8.78239100026059
 30
0.0
 11
28.3242453108275
 21
-8.78239100026059
 31
0.0
  0
LINE
  5
76B
330
CA0
100
AcDbEntity
  8
TITLEBLOCK_NOTES
  6
Continuous
 62
     3
100
AcDbLine
 10
28.31391509713665
 20
-8.758424877655734
 30
0.0
 11
28.82984546598592
 21
-8.758424877655734
 31
0.0
  0
LINE
  5
76C
330
CA0
100
AcDbEntity
  8
TITLEBLOCK_NOTES
  6
Continuous
 62
     3
100
AcDbLine
 10
28.34490578614154
 20
-8.83032324547023
 30
0.0
 11
28.79885477698116
 21
-8.83032324547023
 31
0.0
  0
LINE
  5
76D
330
CA0
100
AcDbEntity
  8
TITLEBLOCK_NOTES
  6
Continuous
 62
     3
100
AcDbLine
 10
28.95931415108006
 20
-8.579150707277106
 30
0.0
 11
29.3507792901836
 21
-8.579150707277106
 31
0.0
  0
LINE
  5
76E
330
CA0
100
AcDbEntity
  8
TITLEBLOCK_NOTES
  6
Continuous
 62
     3
100
AcDbLine
 10
27.83871975514997
 20
-8.806357122865373
 30
0.0
 11
27.59888942414072
 21
-8.806357122865373
 31
0.0
  0
LINE
  5
76F
330
CA0
100
AcDbEntity
  8
TITLEBLOCK_NOTES
  6
Continuous
 62
     3
100
AcDbLine
 10
27.8490499688407
 20
-8.83032324547023
 30
0.0
 11
27.62102894474512
 21
-8.83032324547023
 31
0.0
  0
LINE
  5
770
330
CA0
100
AcDbEntity
  8
TITLEBLOCK_NOTES
  6
Continuous
 62
     3
100
AcDbLine
 10
27.82838949352679
 20
-8.78239100026059
 30
0.0
 11
27.57503771580529
 21
-8.78239100026059
 31
0.0
  0
LINE
  5
771
330
CA0
100
AcDbEntity
  8
TITLEBLOCK_NOTES
  6
Continuous
 62
     3
100
AcDbLine
 10
27.54926795074539
 20
-8.758424877655734
 30
0.0
 11
27.81805927983595
 21
-8.758424877655734
 31
0.0
  0
LINE
  5
772
330
CA0
100
AcDbEntity
  8
TITLEBLOCK_NOTES
  6
Continuous
 62
     3
100
AcDbLine
 10
27.72012550645877
 20
-8.531218462067469
 30
0.0
 11
28.21598132375959
 21
-8.531218462067469
 31
0.0
  0
LINE
  5
773
330
CA0
100
AcDbEntity
  8
TITLEBLOCK_NOTES
  6
Continuous
 62
     3
100
AcDbLine
 10
28.20021386790111
 20
-8.55518458467232
 30
0.0
 11
27.75655338969901
 21
-8.55518458467232
 31
0.0
  0
LINE
  5
774
330
CA0
100
AcDbEntity
  8
TITLEBLOCK_NOTES
  6
Continuous
 62
     3
100
AcDbLine
 10
27.79298132087132
 20
-8.579150707277106
 30
0.0
 11
28.18444641204263
 21
-8.579150707277106
 31
0.0
  0
LINE
  5
775
330
CA0
100
AcDbEntity
  8
TITLEBLOCK_NOTES
  6
Continuous
 62
     3
100
AcDbLine
 10
28.94700419186522
 20
-9.637002129753485
 30
0.0
 11
29.21414737070423
 21
-9.63233913714275
 31
0.0
  0
LINE
  5
776
330
CA0
100
AcDbEntity
  8
TITLEBLOCK_NOTES
  6
Continuous
 62
     3
100
AcDbLine
 10
28.50823721244099
 20
-9.209252185161703
 30
0.0
 11
28.63552335068172
 21
-9.209252185161703
 31
0.0
  0
LINE
  5
777
330
CA0
100
AcDbEntity
  8
TITLEBLOCK_NOTES
  6
Continuous
 62
     3
100
AcDbLine
 10
28.49790699875019
 20
-9.185286062556915
 30
0.0
 11
28.64585361230483
 21
-9.185286062556915
 31
0.0
  0
LINE
  5
778
330
CA0
100
AcDbEntity
  8
TITLEBLOCK_NOTES
  6
Continuous
 62
     3
100
AcDbLine
 10
28.48757673712702
 20
-9.161319939952059
 30
0.0
 11
28.65618382599561
 21
-9.161319939952059
 31
0.0
  0
LINE
  5
779
330
CA0
100
AcDbEntity
  8
TITLEBLOCK_NOTES
  6
Continuous
 62
     3
100
AcDbLine
 10
28.66651403968641
 20
-9.137353817347271
 30
0.0
 11
28.47724652343623
 21
-9.137353817347271
 31
0.0
  0
LINE
  5
77A
330
CA0
100
AcDbEntity
  8
TITLEBLOCK_NOTES
  6
Continuous
 62
     3
100
AcDbLine
 10
28.56143294542929
 20
-9.332666308702071
 30
0.0
 11
28.58248603376379
 21
-9.332298812178065
 31
0.0
  0
LINE
  5
77B
330
CA0
100
AcDbEntity
  8
TITLEBLOCK_NOTES
  6
Continuous
 62
     3
100
AcDbLine
 10
28.5532292457973
 20
-9.313633660367761
 30
0.0
 11
28.5908141175722
 21
-9.312977611727555
 31
0.0
  0
LINE
  5
77C
330
CA0
100
AcDbEntity
  8
TITLEBLOCK_NOTES
  6
Continuous
 62
     3
100
AcDbLine
 10
28.59550390430802
 20
-9.302097327590674
 30
0.0
 11
28.54825665881467
 21
-9.302097327590674
 31
0.0
  0
LINE
  5
77D
330
CA0
100
AcDbEntity
  8
TITLEBLOCK_NOTES
  6
Continuous
 62
     3
100
AcDbLine
 10
28.56963669299372
 20
-9.351698909104204
 30
0.0
 11
28.57415790202306
 21
-9.351620012628576
 31
0.0
  0
LINE
  5
77E
330
CA0
100
AcDbEntity
  8
TITLEBLOCK_NOTES
  6
Continuous
 62
     3
100
AcDbLine
 10
28.46691630974543
 20
-9.113387694742483
 30
0.0
 11
28.67684425337728
 21
-9.113387694742483
 31
0.0
  0
LINE
  5
77F
330
CA0
100
AcDbEntity
  8
TITLEBLOCK_NOTES
  6
Continuous
 62
     3
100
AcDbLine
 10
29.09042887740683
 20
-9.304256819034115
 30
0.0
 11
29.21414737070423
 21
-9.302097327590674
 31
0.0
  0
LINE
  5
780
330
CA0
100
AcDbEntity
  8
TITLEBLOCK_NOTES
  6
Continuous
 62
     3
100
AcDbLine
 10
27.41002511393724
 20
-9.897287450541334
 30
0.0
 11
27.81879700502203
 21
-9.897287450541334
 31
0.0
  0
LINE
  5
781
330
CA0
100
AcDbEntity
  8
TITLEBLOCK_NOTES
  6
Continuous
 62
     3
100
AcDbLine
 10
27.38807645953335
 20
-9.873321327936546
 30
0.0
 11
27.84386393957027
 21
-9.873321327936546
 31
0.0
  0
LINE
  5
782
330
CA0
100
AcDbEntity
  8
TITLEBLOCK_NOTES
  6
Continuous
 62
     3
100
AcDbLine
 10
27.79298132087132
 20
-9.921253573146124
 30
0.0
 11
27.43095506433375
 21
-9.921253573146124
 31
0.0
  0
LINE
  5
783
330
CA0
100
AcDbEntity
  8
TITLEBLOCK_NOTES
  6
Continuous
 62
     3
100
AcDbLine
 10
27.41079006463855
 20
-9.346066630630867
 30
0.0
 11
27.81962167930075
 21
-9.346066630630867
 31
0.0
  0
LINE
  5
784
330
CA0
100
AcDbEntity
  8
TITLEBLOCK_NOTES
  6
Continuous
 62
     3
100
AcDbLine
 10
27.84546166509981
 20
-9.37003275323566
 30
0.0
 11
27.39010581493109
 21
-9.37003275323566
 31
0.0
  0
LINE
  5
785
330
CA0
100
AcDbEntity
  8
TITLEBLOCK_NOTES
  6
Continuous
 62
     3
100
AcDbLine
 10
27.42882821474936
 20
-9.322100508026018
 30
0.0
 11
27.79298132087132
 21
-9.322100508026018
 31
0.0
  0
LINE
  5
786
330
CA0
100
AcDbEntity
  8
TITLEBLOCK_NOTES
  6
Continuous
 62
     3
100
AcDbLine
 10
27.49268781778743
 20
-9.873321327936546
 30
0.0
 11
28.29259977148878
 21
-9.859358808703731
 31
0.0
  0
LINE
  5
787
330
CA0
100
AcDbEntity
  8
TITLEBLOCK_NOTES
  6
Continuous
 62
     3
100
AcDbLine
 10
27.83376499896252
 20
-9.982422739260632
 30
0.0
 11
28.34182211307813
 21
-9.973554554913134
 31
0.0
  0
LINE
  5
788
330
CA0
100
AcDbEntity
  8
TITLEBLOCK_NOTES
  6
Continuous
 62
     3
100
AcDbLine
 10
27.83056585712059
 20
-10.0016544022771
 30
0.0
 11
28.34420214078178
 21
-9.992688819607378
 31
0.0
  0
LINE
  5
789
330
CA0
100
AcDbEntity
  8
TITLEBLOCK_NOTES
  6
Continuous
 62
     3
100
AcDbLine
 10
27.82908767461054
 20
-10.00975840283913
 30
0.0
 11
28.34420214078178
 21
-10.00975840283913
 31
0.0
  0
LINE
  5
78A
330
CA0
100
AcDbEntity
  8
TITLEBLOCK_NOTES
  6
Continuous
 62
     3
100
AcDbLine
 10
27.83653251093648
 20
-9.963198601606627
 30
0.0
 11
28.33361836551377
 21
-9.954521954511067
 31
0.0
  0
LINE
  5
78B
330
CA0
100
AcDbEntity
  8
TITLEBLOCK_NOTES
  6
Continuous
 62
     3
100
AcDbLine
 10
27.83887285074107
 20
-9.943981941382903
 30
0.0
 11
28.32541466588177
 21
-9.935489306176688
 31
0.0
  0
LINE
  5
78C
330
CA0
100
AcDbEntity
  8
TITLEBLOCK_NOTES
  6
Continuous
 62
     3
100
AcDbLine
 10
27.84079004468501
 20
-9.924772662724967
 30
0.0
 11
28.3172109183174
 21
-9.916456705774557
 31
0.0
  0
LINE
  5
78D
330
CA0
100
AcDbEntity
  8
TITLEBLOCK_NOTES
  6
Continuous
 62
     3
100
AcDbLine
 10
27.84228716043191
 20
-9.905570717700511
 30
0.0
 11
28.30900721868527
 21
-9.89742405744024
 31
0.0
  0
LINE
  5
78E
330
CA0
100
AcDbEntity
  8
TITLEBLOCK_NOTES
  6
Continuous
 62
     3
100
AcDbLine
 10
27.84336688218743
 20
-9.886376058377353
 30
0.0
 11
28.30080351905309
 21
-9.878391457038112
 31
0.0
  0
LINE
  5
78F
330
CA0
100
AcDbEntity
  8
TITLEBLOCK_NOTES
  6
Continuous
 62
     3
100
AcDbLine
 10
27.78810229763136
 20
-10.15720800694318
 30
0.0
 11
28.34420214078178
 21
-10.14750124796578
 31
0.0
  0
LINE
  5
790
330
CA0
100
AcDbEntity
  8
TITLEBLOCK_NOTES
  6
Continuous
 62
     3
100
AcDbLine
 10
27.79505175420303
 20
-10.13791086847976
 30
0.0
 11
28.34420214078178
 21
-10.128325426015
 31
0.0
  0
LINE
  5
791
330
CA0
100
AcDbEntity
  8
TITLEBLOCK_NOTES
  6
Continuous
 62
     3
100
AcDbLine
 10
27.80150204437322
 20
-10.11862245368491
 30
0.0
 11
28.34420214078178
 21
-10.10914960406414
 31
0.0
  0
LINE
  5
792
330
CA0
100
AcDbEntity
  8
TITLEBLOCK_NOTES
  6
Continuous
 62
     3
100
AcDbLine
 10
27.80603418195459
 20
-10.10411321926326
 30
0.0
 11
28.34420214078178
 21
-10.10411321926326
 31
0.0
  0
LINE
  5
793
330
CA0
100
AcDbEntity
  8
TITLEBLOCK_NOTES
  6
Continuous
 62
     3
100
AcDbLine
 10
27.68734191182204
 20
-10.35072495639239
 30
0.0
 11
28.34420214078178
 21
-10.33925941954154
 31
0.0
  0
LINE
  5
794
330
CA0
100
AcDbEntity
  8
TITLEBLOCK_NOTES
  6
Continuous
 62
     3
100
AcDbLine
 10
27.6735893358232
 20
-10.37014082302724
 30
0.0
 11
28.34420214078178
 21
-10.35843524149233
 31
0.0
  0
LINE
  5
795
330
CA0
100
AcDbEntity
  8
TITLEBLOCK_NOTES
  6
Continuous
 62
     3
100
AcDbLine
 10
27.62722739889883
 20
-10.42847752897552
 30
0.0
 11
28.34420214078178
 21
-10.41596270734475
 31
0.0
  0
LINE
  5
796
330
CA0
100
AcDbEntity
  8
TITLEBLOCK_NOTES
  6
Continuous
 62
     3
100
AcDbLine
 10
27.64358983771705
 20
-10.40901612670776
 30
0.0
 11
28.34420214078178
 21
-10.39678688539397
 31
0.0
  0
LINE
  5
797
330
CA0
100
AcDbEntity
  8
TITLEBLOCK_NOTES
  6
Continuous
 62
     3
100
AcDbLine
 10
27.65902315789425
 20
-10.38957092553886
 30
0.0
 11
28.34420214078178
 21
-10.37761106344312
 31
0.0
  0
LINE
  5
798
330
CA0
100
AcDbEntity
  8
TITLEBLOCK_NOTES
  6
Continuous
 62
     3
100
AcDbLine
 10
27.59141400704237
 20
-10.46745430521911
 30
0.0
 11
28.34420214078178
 21
-10.45431435124633
 31
0.0
  0
LINE
  5
799
330
CA0
100
AcDbEntity
  8
TITLEBLOCK_NOTES
  6
Continuous
 62
     3
100
AcDbLine
 10
27.60986375134276
 20
-10.44795647444498
 30
0.0
 11
28.34420214078178
 21
-10.43513852929554
 31
0.0
  0
LINE
  5
79A
330
CA0
100
AcDbEntity
  8
TITLEBLOCK_NOTES
  6
Continuous
 62
     3
100
AcDbLine
 10
27.52842916747937
 20
-10.52608119297991
 30
0.0
 11
28.34420214078178
 21
-10.51184181709875
 31
0.0
  0
LINE
  5
79B
330
CA0
100
AcDbEntity
  8
TITLEBLOCK_NOTES
  6
Continuous
 62
     3
100
AcDbLine
 10
27.55083178817765
 20
-10.50651429184046
 30
0.0
 11
28.34420214078178
 21
-10.49266599514797
 31
0.0
  0
LINE
  5
79C
330
CA0
100
AcDbEntity
  8
TITLEBLOCK_NOTES
  6
Continuous
 62
     3
100
AcDbLine
 10
27.57177722068936
 20
-10.4869728906554
 30
0.0
 11
28.34420214078178
 21
-10.47349017319711
 31
0.0
  0
LINE
  5
79D
330
CA0
100
AcDbEntity
  8
TITLEBLOCK_NOTES
  6
Continuous
 62
     3
100
AcDbLine
 10
27.50438457978915
 20
-10.54567670966979
 30
0.0
 11
28.34420214078178
 21
-10.53101763904954
 31
0.0
  0
LINE
  5
79E
330
CA0
100
AcDbEntity
  8
TITLEBLOCK_NOTES
  6
Continuous
 62
     3
100
AcDbLine
 10
27.45035957102651
 20
-10.58497132463139
 30
0.0
 11
28.34420214078178
 21
-10.56936923501894
 31
0.0
  0
LINE
  5
79F
330
CA0
100
AcDbEntity
  8
TITLEBLOCK_NOTES
  6
Continuous
 62
     3
100
AcDbLine
 10
27.47846334883453
 20
-10.56530496408309
 30
0.0
 11
28.34420214078178
 21
-10.55019346100033
 31
0.0
  0
LINE
  5
7A0
330
CA0
100
AcDbEntity
  8
TITLEBLOCK_NOTES
  6
Continuous
 62
     3
100
AcDbLine
 10
27.70032742810069
 20
-10.33132251078626
 30
0.0
 11
28.34420214078178
 21
-10.32008359759075
 31
0.0
  0
LINE
  5
7A1
330
CA0
100
AcDbEntity
  8
TITLEBLOCK_NOTES
  6
Continuous
 62
     3
100
AcDbLine
 10
27.71258681879682
 20
-10.31193267136059
 30
0.0
 11
28.34420214078178
 21
-10.30090777563997
 31
0.0
  0
LINE
  5
7A2
330
CA0
100
AcDbEntity
  8
TITLEBLOCK_NOTES
  6
Continuous
 62
     3
100
AcDbLine
 10
27.72415608102624
 20
-10.29255491086073
 30
0.0
 11
28.34420214078178
 21
-10.28173200162142
 31
0.0
  0
LINE
  5
7A3
330
CA0
100
AcDbEntity
  8
TITLEBLOCK_NOTES
  6
Continuous
 62
     3
100
AcDbLine
 10
27.73506704180002
 20
-10.2731886540997
 30
0.0
 11
28.34420214078178
 21
-10.26255617967057
 31
0.0
  0
LINE
  5
7A4
330
CA0
100
AcDbEntity
  8
TITLEBLOCK_NOTES
  6
Continuous
 62
     3
100
AcDbLine
 10
27.74534812493956
 20
-10.25383337382286
 30
0.0
 11
28.34420214078178
 21
-10.24338035771978
 31
0.0
  0
LINE
  5
7A5
330
CA0
100
AcDbEntity
  8
TITLEBLOCK_NOTES
  6
Continuous
 62
     3
100
AcDbLine
 10
27.75502454280578
 20
-10.23448863863989
 30
0.0
 11
28.34420214078178
 21
-10.22420453576899
 31
0.0
  0
LINE
  5
7A6
330
CA0
100
AcDbEntity
  8
TITLEBLOCK_NOTES
  6
Continuous
 62
     3
100
AcDbLine
 10
27.7641188714861
 20
-10.21515411302519
 30
0.0
 11
28.34420214078178
 21
-10.20502871381814
 31
0.0
  0
LINE
  5
7A7
330
CA0
100
AcDbEntity
  8
TITLEBLOCK_NOTES
  6
Continuous
 62
     3
100
AcDbLine
 10
27.77265148218478
 20
-10.19582931765635
 30
0.0
 11
28.34420214078178
 21
-10.18585289186736
 31
0.0
  0
LINE
  5
7A8
330
CA0
100
AcDbEntity
  8
TITLEBLOCK_NOTES
  6
Continuous
 62
     3
100
AcDbLine
 10
27.78064049329077
 20
-10.17651406080422
 30
0.0
 11
28.34420214078178
 21
-10.16667706991657
 31
0.0
  0
LINE
  5
7A9
330
CA0
100
AcDbEntity
  8
TITLEBLOCK_NOTES
  6
Continuous
 62
     3
100
AcDbLine
 10
27.78458934337993
 20
-9.537984320718685
 30
0.0
 11
28.15131713005339
 21
-9.531583065235437
 31
0.0
  0
LINE
  5
7AA
330
CA0
100
AcDbEntity
  8
TITLEBLOCK_NOTES
  6
Continuous
 62
     3
100
AcDbLine
 10
27.80754572530723
 20
-9.161319939952059
 30
0.0
 11
27.99172096775855
 21
-9.161319939952059
 31
0.0
  0
LINE
  5
7AB
330
CA0
100
AcDbEntity
  8
TITLEBLOCK_NOTES
  6
Continuous
 62
     3
100
AcDbLine
 10
27.98139070613557
 20
-9.137353817347271
 30
0.0
 11
27.79979273257688
 21
-9.137353817347271
 31
0.0
  0
LINE
  5
7AC
330
CA0
100
AcDbEntity
  8
TITLEBLOCK_NOTES
  6
Continuous
 62
     3
100
AcDbLine
 10
28.00205118144948
 20
-9.185286062556915
 30
0.0
 11
27.8145616159708
 21
-9.185286062556915
 31
0.0
  0
LINE
  5
7AD
330
CA0
100
AcDbEntity
  8
TITLEBLOCK_NOTES
  6
Continuous
 62
     3
100
AcDbLine
 10
28.01173066697927
 20
-9.207742511166614
 30
0.0
 11
27.82048259035713
 21
-9.207742511166614
 31
0.0
  0
LINE
  5
7AE
330
CA0
100
AcDbEntity
  8
TITLEBLOCK_NOTES
  6
Continuous
 62
     3
100
AcDbLine
 10
27.84360568063314
 20
-9.345196037261088
 30
0.0
 11
28.06927998993555
 21
-9.341256869485324
 31
0.0
  0
LINE
  5
7AF
330
CA0
100
AcDbEntity
  8
TITLEBLOCK_NOTES
  6
Continuous
 62
     3
100
AcDbLine
 10
27.84169836073171
 20
-9.32605348028847
 30
0.0
 11
28.06107624237112
 21
-9.322224221150944
 31
0.0
  0
LINE
  5
7B0
330
CA0
100
AcDbEntity
  8
TITLEBLOCK_NOTES
  6
Continuous
 62
     3
100
AcDbLine
 10
27.83937407822924
 20
-9.306918256949401
 30
0.0
 11
28.05287254273912
 21
-9.303191620748812
 31
0.0
  0
LINE
  5
7B1
330
CA0
100
AcDbEntity
  8
TITLEBLOCK_NOTES
  6
Continuous
 62
     3
100
AcDbLine
 10
28.0524008415139
 20
-9.302097327590674
 30
0.0
 11
27.83872224762677
 21
-9.302097327590674
 31
0.0
  0
LINE
  5
7B2
330
CA0
100
AcDbEntity
  8
TITLEBLOCK_NOTES
  6
Continuous
 62
     3
100
AcDbLine
 10
27.84509814695232
 20
-9.364345784070515
 30
0.0
 11
28.07748368956767
 21
-9.360289469887392
 31
0.0
  0
LINE
  5
7B3
330
CA0
100
AcDbEntity
  8
TITLEBLOCK_NOTES
  6
Continuous
 62
     3
100
AcDbLine
 10
27.97106049244459
 20
-9.113387694742483
 30
0.0
 11
27.79128212277856
 21
-9.113387694742483
 31
0.0
  0
LINE
  5
7B4
330
CA0
100
AcDbEntity
  8
TITLEBLOCK_NOTES
  6
Continuous
 62
     3
100
AcDbLine
 10
27.75655338969901
 20
-8.55518458467232
 30
0.0
 11
28.36816826338664
 21
-9.974131036026284
 31
0.0
  0
LINE
  5
7B5
330
CA0
100
AcDbEntity
  8
TITLEBLOCK_NOTES
  6
Continuous
 62
     3
100
AcDbLine
 10
27.72012550645877
 20
-8.531218462067469
 30
0.0
 11
28.34420214078178
 21
-9.979076253696806
 31
0.0
  0
LINE
  5
7B6
330
CA0
100
AcDbEntity
  8
TITLEBLOCK_NOTES
  6
Continuous
 62
     3
100
AcDbLine
 10
28.39213438599143
 20
-9.969185818355763
 30
0.0
 11
27.79298132087132
 21
-8.579150707277106
 31
0.0
  0
LINE
  5
7B7
330
CA0
100
AcDbEntity
  8
TITLEBLOCK_NOTES
  6
Continuous
 62
     3
100
AcDbLine
 10
28.5718803055275
 20
-9.477997307567868
 30
0.0
 11
28.95931415108006
 21
-8.579150707277106
 31
0.0
  0
LINE
  5
7B8
330
CA0
100
AcDbEntity
  8
TITLEBLOCK_NOTES
  6
Continuous
 62
     3
100
AcDbLine
 10
28.5718803055275
 20
-9.417450733386413
 30
0.0
 11
28.94354669522158
 21
-8.55518458467232
 31
0.0
  0
LINE
  5
7B9
330
CA0
100
AcDbEntity
  8
TITLEBLOCK_NOTES
  6
Continuous
 62
     3
100
AcDbLine
 10
28.92777928729541
 20
-8.531218462067469
 30
0.0
 11
28.5718803055275
 21
-9.356904111272717
 31
0.0
  0
LINE
  5
7BA
330
CA0
100
AcDbEntity
  8
TITLEBLOCK_NOTES
  6
Continuous
 62
     3
100
AcDbLine
 10
28.5718803055275
 20
-9.477997307567868
 30
0.0
 11
28.18444641204263
 21
-8.579150707277106
 31
0.0
  0
LINE
  5
7BB
330
CA0
100
AcDbEntity
  8
TITLEBLOCK_NOTES
  6
Continuous
 62
     3
100
AcDbLine
 10
28.5718803055275
 20
-9.417450733386413
 30
0.0
 11
28.20021386790111
 21
-8.55518458467232
 31
0.0
  0
LINE
  5
7BC
330
CA0
100
AcDbEntity
  8
TITLEBLOCK_NOTES
  6
Continuous
 62
     3
100
AcDbLine
 10
28.5718803055275
 20
-9.356904111272717
 30
0.0
 11
28.21598132375959
 21
-8.531218462067469
 31
0.0
  0
LINE
  5
7BD
330
CA0
100
AcDbEntity
  8
TITLEBLOCK_NOTES
  6
Continuous
 62
     3
100
AcDbLine
 10
28.77559234766831
 20
-9.974131036026284
 30
0.0
 11
29.38720717342372
 21
-8.55518458467232
 31
0.0
  0
LINE
  5
7BE
330
CA0
100
AcDbEntity
  8
TITLEBLOCK_NOTES
  6
Continuous
 62
     3
100
AcDbLine
 10
28.79955847027316
 20
-9.979076253696806
 30
0.0
 11
29.42363505666385
 21
-8.531218462067469
 31
0.0
  0
LINE
  5
7BF
330
CA0
100
AcDbEntity
  8
TITLEBLOCK_NOTES
  6
Continuous
 62
     3
100
AcDbLine
 10
28.75162622506357
 20
-9.969185818355763
 30
0.0
 11
29.3507792901836
 21
-8.579150707277106
 31
0.0
  0
LINE
  5
7C0
330
CA0
100
AcDbEntity
  8
TITLEBLOCK_NOTES
  6
Continuous
 62
     3
100
AcDbLine
 10
28.77559234766831
 20
-10.71213561910473
 30
0.0
 11
28.36816826338664
 21
-10.71213561910473
 31
0.0
  0
LINE
  5
7C1
330
CA0
100
AcDbEntity
  8
TITLEBLOCK_NOTES
  6
Continuous
 62
     3
100
AcDbLine
 10
28.39213438599143
 20
-10.68816949649988
 30
0.0
 11
28.75162622506357
 21
-10.68816949649988
 31
0.0
  0
LINE
  5
7C2
330
CA0
100
AcDbEntity
  8
TITLEBLOCK_NOTES
  6
Continuous
 62
     3
100
AcDbLine
 10
28.34420214078178
 20
-10.73610174170952
 30
0.0
 11
28.79955847027316
 21
-10.73610174170952
 31
0.0
  0
LINE
  5
7C3
330
CA0
100
AcDbEntity
  8
TITLEBLOCK_NOTES
  6
Continuous
 62
     3
100
AcDbLine
 10
27.38579196079444
 20
-10.62444999941456
 30
0.0
 11
28.34420214078178
 21
-10.60772087892051
 31
0.0
  0
LINE
  5
7C4
330
CA0
100
AcDbEntity
  8
TITLEBLOCK_NOTES
  6
Continuous
 62
     3
100
AcDbLine
 10
27.41966160424316
 20
-10.60468298115136
 30
0.0
 11
28.34420214078178
 21
-10.58854505696973
 31
0.0
  0
LINE
  5
7C5
330
CA0
100
AcDbEntity
  8
TITLEBLOCK_NOTES
  6
Continuous
 62
     3
100
AcDbLine
 10
28.36816826338664
 20
-10.71213561910473
 30
0.0
 11
28.36816826338664
 21
-9.974131036026284
 31
0.0
  0
LINE
  5
7C6
330
CA0
100
AcDbEntity
  8
TITLEBLOCK_NOTES
  6
Continuous
 62
     3
100
AcDbLine
 10
28.34420214078178
 20
-9.979076253696806
 30
0.0
 11
28.34420214078178
 21
-10.73610174170952
 31
0.0
  0
LINE
  5
7C7
330
CA0
100
AcDbEntity
  8
TITLEBLOCK_NOTES
  6
Continuous
 62
     3
100
AcDbLine
 10
28.39213438599143
 20
-10.68816949649988
 30
0.0
 11
28.39213438599143
 21
-9.969185818355763
 31
0.0
  0
LINE
  5
7C8
330
CA0
100
AcDbEntity
  8
TITLEBLOCK_NOTES
  6
Continuous
 62
     3
100
AcDbLine
 10
28.77559234766831
 20
-9.974131036026284
 30
0.0
 11
28.77559234766831
 21
-10.71213561910473
 31
0.0
  0
LINE
  5
7C9
330
CA0
100
AcDbEntity
  8
TITLEBLOCK_NOTES
  6
Continuous
 62
     3
100
AcDbLine
 10
28.79955847027316
 20
-10.73610174170952
 30
0.0
 11
28.79955847027316
 21
-9.979076253696806
 31
0.0
  0
LINE
  5
7CA
330
CA0
100
AcDbEntity
  8
TITLEBLOCK_NOTES
  6
Continuous
 62
     3
100
AcDbLine
 10
28.75162622506357
 20
-10.68816949649988
 30
0.0
 11
28.75162622506357
 21
-9.969185818355763
 31
0.0
  0
LINE
  5
7CB
330
CA0
100
AcDbEntity
  8
TITLEBLOCK_NOTES
  6
Continuous
 62
     3
100
AcDbLine
 10
24.64143619833956
 20
-8.962608668953992
 30
0.0
 11
25.18067395694759
 21
-8.962608668953992
 31
0.0
  0
LINE
  5
7CC
330
CA0
100
AcDbEntity
  8
TITLEBLOCK_NOTES
  6
Continuous
 62
     3
100
AcDbLine
 10
25.15670783434274
 20
-8.9386425463492
 30
0.0
 11
24.61747007573477
 21
-8.9386425463492
 31
0.0
  0
LINE
  5
7CD
330
CA0
100
AcDbEntity
  8
TITLEBLOCK_NOTES
  6
Continuous
 62
     3
100
AcDbLine
 10
23.69477435544972
 20
-8.55518458467232
 30
0.0
 11
25.18067395694759
 21
-8.55518458467232
 31
0.0
  0
LINE
  5
7CE
330
CA0
100
AcDbEntity
  8
TITLEBLOCK_NOTES
  6
Continuous
 62
     3
100
AcDbLine
 10
23.71874047805464
 20
-8.579150707277106
 30
0.0
 11
25.15670783434274
 21
-8.579150707277106
 31
0.0
  0
LINE
  5
7CF
330
CA0
100
AcDbEntity
  8
TITLEBLOCK_NOTES
  6
Continuous
 62
     3
100
AcDbLine
 10
24.66540232094434
 20
-9.999375080220598
 30
0.0
 11
25.34843681518123
 21
-9.987452653208434
 31
0.0
  0
LINE
  5
7D0
330
CA0
100
AcDbEntity
  8
TITLEBLOCK_NOTES
  6
Continuous
 62
     3
100
AcDbLine
 10
24.66540232094434
 20
-9.980199258269811
 30
0.0
 11
25.34843681518123
 21
-9.968276831257583
 31
0.0
  0
LINE
  5
7D1
330
CA0
100
AcDbEntity
  8
TITLEBLOCK_NOTES
  6
Continuous
 62
     3
100
AcDbLine
 10
24.66540232094434
 20
-9.961023436319024
 30
0.0
 11
25.34843681518123
 21
-9.949101009306794
 31
0.0
  0
LINE
  5
7D2
330
CA0
100
AcDbEntity
  8
TITLEBLOCK_NOTES
  6
Continuous
 62
     3
100
AcDbLine
 10
24.66540232094434
 20
-9.941847614368237
 30
0.0
 11
25.34843681518123
 21
-9.929925187356008
 31
0.0
  0
LINE
  5
7D3
330
CA0
100
AcDbEntity
  8
TITLEBLOCK_NOTES
  6
Continuous
 62
     3
100
AcDbLine
 10
24.66540232094434
 20
-9.92267179241745
 30
0.0
 11
25.34843681518123
 21
-9.910749365405219
 31
0.0
  0
LINE
  5
7D4
330
CA0
100
AcDbEntity
  8
TITLEBLOCK_NOTES
  6
Continuous
 62
     3
100
AcDbLine
 10
24.66540232094434
 20
-9.9034959704666
 30
0.0
 11
25.34843681518123
 21
-9.891573543454367
 31
0.0
  0
LINE
  5
7D5
330
CA0
100
AcDbEntity
  8
TITLEBLOCK_NOTES
  6
Continuous
 62
     3
100
AcDbLine
 10
24.66540232094434
 20
-9.884320148515815
 30
0.0
 11
25.34843681518123
 21
-9.872397769435826
 31
0.0
  0
LINE
  5
7D6
330
CA0
100
AcDbEntity
  8
TITLEBLOCK_NOTES
  6
Continuous
 62
     3
100
AcDbLine
 10
24.66540232094434
 20
-9.865144326565026
 30
0.0
 11
25.34843681518123
 21
-9.853221947485039
 31
0.0
  0
LINE
  5
7D7
330
CA0
100
AcDbEntity
  8
TITLEBLOCK_NOTES
  6
Continuous
 62
     3
100
AcDbLine
 10
24.66540232094434
 20
-9.845968504614239
 30
0.0
 11
25.34843681518123
 21
-9.834046125534252
 31
0.0
  0
LINE
  5
7D8
330
CA0
100
AcDbEntity
  8
TITLEBLOCK_NOTES
  6
Continuous
 62
     3
100
AcDbLine
 10
24.66540232094434
 20
-9.826792682663452
 30
0.0
 11
25.34843681518123
 21
-9.814870303583465
 31
0.0
  0
LINE
  5
7D9
330
CA0
100
AcDbEntity
  8
TITLEBLOCK_NOTES
  6
Continuous
 62
     3
100
AcDbLine
 10
24.66540232094434
 20
-9.807616908644842
 30
0.0
 11
25.34843681518123
 21
-9.795694481632679
 31
0.0
  0
LINE
  5
7DA
330
CA0
100
AcDbEntity
  8
TITLEBLOCK_NOTES
  6
Continuous
 62
     3
100
AcDbLine
 10
24.66540232094434
 20
-9.788441086694055
 30
0.0
 11
25.34843681518123
 21
-9.776518659681823
 31
0.0
  0
LINE
  5
7DB
330
CA0
100
AcDbEntity
  8
TITLEBLOCK_NOTES
  6
Continuous
 62
     3
100
AcDbLine
 10
24.66540232094434
 20
-9.769265264743268
 30
0.0
 11
25.34843681518123
 21
-9.757342837731036
 31
0.0
  0
LINE
  5
7DC
330
CA0
100
AcDbEntity
  8
TITLEBLOCK_NOTES
  6
Continuous
 62
     3
100
AcDbLine
 10
24.66540232094434
 20
-9.750089442792479
 30
0.0
 11
25.34843681518123
 21
-9.738167015780248
 31
0.0
  0
LINE
  5
7DD
330
CA0
100
AcDbEntity
  8
TITLEBLOCK_NOTES
  6
Continuous
 62
     3
100
AcDbLine
 10
24.66540232094434
 20
-9.730913620841628
 30
0.0
 11
25.34843681518123
 21
-9.718991193829463
 31
0.0
  0
LINE
  5
7DE
330
CA0
100
AcDbEntity
  8
TITLEBLOCK_NOTES
  6
Continuous
 62
     3
100
AcDbLine
 10
24.66540232094434
 20
-9.71173779889084
 30
0.0
 11
25.34843681518123
 21
-9.699815371878608
 31
0.0
  0
LINE
  5
7DF
330
CA0
100
AcDbEntity
  8
TITLEBLOCK_NOTES
  6
Continuous
 62
     3
100
AcDbLine
 10
24.66540232094434
 20
-9.692561976940055
 30
0.0
 11
25.34843681518123
 21
-9.680639549927819
 31
0.0
  0
LINE
  5
7E0
330
CA0
100
AcDbEntity
  8
TITLEBLOCK_NOTES
  6
Continuous
 62
     3
100
AcDbLine
 10
24.66540232094434
 20
-9.673386154989266
 30
0.0
 11
25.34843681518123
 21
-9.661463727977032
 31
0.0
  0
LINE
  5
7E1
330
CA0
100
AcDbEntity
  8
TITLEBLOCK_NOTES
  6
Continuous
 62
     3
100
AcDbLine
 10
24.66540232094434
 20
-9.654210333038479
 30
0.0
 11
25.34843681518123
 21
-9.642287906026247
 31
0.0
  0
LINE
  5
7E2
330
CA0
100
AcDbEntity
  8
TITLEBLOCK_NOTES
  6
Continuous
 62
     3
100
AcDbLine
 10
24.66540232094434
 20
-10.00975840283913
 30
0.0
 11
25.34843681518123
 21
-10.00975840283913
 31
0.0
  0
LINE
  5
7E3
330
CA0
100
AcDbEntity
  8
TITLEBLOCK_NOTES
  6
Continuous
 62
     3
100
AcDbLine
 10
24.66540232094434
 20
-9.63233913714275
 30
0.0
 11
25.34843681518123
 21
-9.63233913714275
 31
0.0
  0
LINE
  5
7E4
330
CA0
100
AcDbEntity
  8
TITLEBLOCK_NOTES
  6
Continuous
 62
     3
100
AcDbLine
 10
24.66540232094434
 20
-10.15418746064676
 30
0.0
 11
25.34843681518123
 21
-10.14226508156684
 31
0.0
  0
LINE
  5
7E5
330
CA0
100
AcDbEntity
  8
TITLEBLOCK_NOTES
  6
Continuous
 62
     3
100
AcDbLine
 10
24.66540232094434
 20
-10.13501168662822
 30
0.0
 11
25.34843681518123
 21
-10.12308925961598
 31
0.0
  0
LINE
  5
7E6
330
CA0
100
AcDbEntity
  8
TITLEBLOCK_NOTES
  6
Continuous
 62
     3
100
AcDbLine
 10
24.66540232094434
 20
-10.11583586467743
 30
0.0
 11
25.33699107434753
 21
-10.10411321926326
 31
0.0
  0
LINE
  5
7E7
330
CA0
100
AcDbEntity
  8
TITLEBLOCK_NOTES
  6
Continuous
 62
     3
100
AcDbLine
 10
24.66540232094434
 20
-10.10411321926326
 30
0.0
 11
25.34843681518123
 21
-10.10411321926326
 31
0.0
  0
LINE
  5
7E8
330
CA0
100
AcDbEntity
  8
TITLEBLOCK_NOTES
  6
Continuous
 62
     3
100
AcDbLine
 10
24.66540232094434
 20
-8.986574791558776
 30
0.0
 11
25.20464007955224
 21
-8.986574791558776
 31
0.0
  0
LINE
  5
7E9
330
CA0
100
AcDbEntity
  8
TITLEBLOCK_NOTES
  6
Continuous
 62
     3
100
AcDbLine
 10
24.66540232094434
 20
-9.477375051160523
 30
0.0
 11
25.34843681518123
 21
-9.465452624148293
 31
0.0
  0
LINE
  5
7EA
330
CA0
100
AcDbEntity
  8
TITLEBLOCK_NOTES
  6
Continuous
 62
     3
100
AcDbLine
 10
24.66540232094434
 20
-9.534902517012952
 30
0.0
 11
25.34843681518123
 21
-9.522980090000718
 31
0.0
  0
LINE
  5
7EB
330
CA0
100
AcDbEntity
  8
TITLEBLOCK_NOTES
  6
Continuous
 62
     3
100
AcDbLine
 10
24.66540232094434
 20
-9.515726695062099
 30
0.0
 11
25.34843681518123
 21
-9.503804268049869
 31
0.0
  0
LINE
  5
7EC
330
CA0
100
AcDbEntity
  8
TITLEBLOCK_NOTES
  6
Continuous
 62
     3
100
AcDbLine
 10
24.66540232094434
 20
-9.49655087311131
 30
0.0
 11
25.34843681518123
 21
-9.48462844609908
 31
0.0
  0
LINE
  5
7ED
330
CA0
100
AcDbEntity
  8
TITLEBLOCK_NOTES
  6
Continuous
 62
     3
100
AcDbLine
 10
24.66540232094434
 20
-9.537984320718685
 30
0.0
 11
25.34843681518123
 21
-9.537984320718685
 31
0.0
  0
LINE
  5
7EE
330
CA0
100
AcDbEntity
  8
TITLEBLOCK_NOTES
  6
Continuous
 62
     3
100
AcDbLine
 10
24.66540232094434
 20
-9.185286062556915
 30
0.0
 11
25.34843681518123
 21
-9.185286062556915
 31
0.0
  0
LINE
  5
7EF
330
CA0
100
AcDbEntity
  8
TITLEBLOCK_NOTES
  6
Continuous
 62
     3
100
AcDbLine
 10
24.66540232094434
 20
-9.161319939952059
 30
0.0
 11
25.34843681518123
 21
-9.161319939952059
 31
0.0
  0
LINE
  5
7F0
330
CA0
100
AcDbEntity
  8
TITLEBLOCK_NOTES
  6
Continuous
 62
     3
100
AcDbLine
 10
24.66540232094434
 20
-9.207742511166614
 30
0.0
 11
25.34843681518123
 21
-9.207742511166614
 31
0.0
  0
LINE
  5
7F1
330
CA0
100
AcDbEntity
  8
TITLEBLOCK_NOTES
  6
Continuous
 62
     3
100
AcDbLine
 10
24.66540232094434
 20
-9.137353817347271
 30
0.0
 11
25.34843681518123
 21
-9.137353817347271
 31
0.0
  0
LINE
  5
7F2
330
CA0
100
AcDbEntity
  8
TITLEBLOCK_NOTES
  6
Continuous
 62
     3
100
AcDbLine
 10
24.66540232094434
 20
-9.113387694742483
 30
0.0
 11
25.34843681518123
 21
-9.113387694742483
 31
0.0
  0
LINE
  5
7F3
330
CA0
100
AcDbEntity
  8
TITLEBLOCK_NOTES
  6
Continuous
 62
     3
100
AcDbLine
 10
24.66540232094434
 20
-9.343144297504883
 30
0.0
 11
25.34843681518123
 21
-9.33122191842496
 31
0.0
  0
LINE
  5
7F4
330
CA0
100
AcDbEntity
  8
TITLEBLOCK_NOTES
  6
Continuous
 62
     3
100
AcDbLine
 10
24.66540232094434
 20
-9.323968475554096
 30
0.0
 11
25.34843681518123
 21
-9.312046096474109
 31
0.0
  0
LINE
  5
7F5
330
CA0
100
AcDbEntity
  8
TITLEBLOCK_NOTES
  6
Continuous
 62
     3
100
AcDbLine
 10
24.66540232094434
 20
-9.302097327590674
 30
0.0
 11
25.34843681518123
 21
-9.302097327590674
 31
0.0
  0
LINE
  5
7F6
330
CA0
100
AcDbEntity
  8
TITLEBLOCK_NOTES
  6
Continuous
 62
     3
100
AcDbLine
 10
24.66540232094434
 20
-9.458199229209736
 30
0.0
 11
25.34843681518123
 21
-9.446276802197505
 31
0.0
  0
LINE
  5
7F7
330
CA0
100
AcDbEntity
  8
TITLEBLOCK_NOTES
  6
Continuous
 62
     3
100
AcDbLine
 10
24.66540232094434
 20
-9.43902340725895
 30
0.0
 11
25.34843681518123
 21
-9.427100980246718
 31
0.0
  0
LINE
  5
7F8
330
CA0
100
AcDbEntity
  8
TITLEBLOCK_NOTES
  6
Continuous
 62
     3
100
AcDbLine
 10
24.66540232094434
 20
-9.419847585308096
 30
0.0
 11
25.34843681518123
 21
-9.407925158295928
 31
0.0
  0
LINE
  5
7F9
330
CA0
100
AcDbEntity
  8
TITLEBLOCK_NOTES
  6
Continuous
 62
     3
100
AcDbLine
 10
24.66540232094434
 20
-9.400671763357308
 30
0.0
 11
25.34843681518123
 21
-9.38874933634508
 31
0.0
  0
LINE
  5
7FA
330
CA0
100
AcDbEntity
  8
TITLEBLOCK_NOTES
  6
Continuous
 62
     3
100
AcDbLine
 10
24.66540232094434
 20
-9.381495941406521
 30
0.0
 11
25.34843681518123
 21
-9.369573514394291
 31
0.0
  0
LINE
  5
7FB
330
CA0
100
AcDbEntity
  8
TITLEBLOCK_NOTES
  6
Continuous
 62
     3
100
AcDbLine
 10
24.66540232094434
 20
-9.362320119455734
 30
0.0
 11
25.34843681518123
 21
-9.350397692443506
 31
0.0
  0
LINE
  5
7FC
330
CA0
100
AcDbEntity
  8
TITLEBLOCK_NOTES
  6
Continuous
 62
     3
100
AcDbLine
 10
24.66540232094434
 20
-10.44182474197658
 30
0.0
 11
25.34843681518123
 21
-10.42990236289659
 31
0.0
  0
LINE
  5
7FD
330
CA0
100
AcDbEntity
  8
TITLEBLOCK_NOTES
  6
Continuous
 62
     3
100
AcDbLine
 10
24.66540232094434
 20
-10.42264892002573
 30
0.0
 11
25.34843681518123
 21
-10.4107265409458
 31
0.0
  0
LINE
  5
7FE
330
CA0
100
AcDbEntity
  8
TITLEBLOCK_NOTES
  6
Continuous
 62
     3
100
AcDbLine
 10
24.66540232094434
 20
-10.40347314600725
 30
0.0
 11
25.34843681518123
 21
-10.39155071899502
 31
0.0
  0
LINE
  5
7FF
330
CA0
100
AcDbEntity
  8
TITLEBLOCK_NOTES
  6
Continuous
 62
     3
100
AcDbLine
 10
24.66540232094434
 20
-10.3842973240564
 30
0.0
 11
25.34843681518123
 21
-10.37237489704416
 31
0.0
  0
LINE
  5
800
330
CA0
100
AcDbEntity
  8
TITLEBLOCK_NOTES
  6
Continuous
 62
     3
100
AcDbLine
 10
24.66540232094434
 20
-10.36512150210561
 30
0.0
 11
25.34843681518123
 21
-10.35319907509345
 31
0.0
  0
LINE
  5
801
330
CA0
100
AcDbEntity
  8
TITLEBLOCK_NOTES
  6
Continuous
 62
     3
100
AcDbLine
 10
24.66540232094434
 20
-10.34594568015482
 30
0.0
 11
25.34843681518123
 21
-10.33402325314259
 31
0.0
  0
LINE
  5
802
330
CA0
100
AcDbEntity
  8
TITLEBLOCK_NOTES
  6
Continuous
 62
     3
100
AcDbLine
 10
24.66540232094434
 20
-10.32676985820398
 30
0.0
 11
25.34843681518123
 21
-10.31484743119181
 31
0.0
  0
LINE
  5
803
330
CA0
100
AcDbEntity
  8
TITLEBLOCK_NOTES
  6
Continuous
 62
     3
100
AcDbLine
 10
24.66540232094434
 20
-10.30759403625319
 30
0.0
 11
25.34843681518123
 21
-10.29567160924095
 31
0.0
  0
LINE
  5
804
330
CA0
100
AcDbEntity
  8
TITLEBLOCK_NOTES
  6
Continuous
 62
     3
100
AcDbLine
 10
24.66540232094434
 20
-10.2884182143024
 30
0.0
 11
25.34843681518123
 21
-10.27649578729017
 31
0.0
  0
LINE
  5
805
330
CA0
100
AcDbEntity
  8
TITLEBLOCK_NOTES
  6
Continuous
 62
     3
100
AcDbLine
 10
24.66540232094434
 20
-10.2692423923516
 30
0.0
 11
25.34843681518123
 21
-10.25731996533938
 31
0.0
  0
LINE
  5
806
330
CA0
100
AcDbEntity
  8
TITLEBLOCK_NOTES
  6
Continuous
 62
     3
100
AcDbLine
 10
24.66540232094434
 20
-10.25006657040083
 30
0.0
 11
25.34843681518123
 21
-10.23814414338859
 31
0.0
  0
LINE
  5
807
330
CA0
100
AcDbEntity
  8
TITLEBLOCK_NOTES
  6
Continuous
 62
     3
100
AcDbLine
 10
24.66540232094434
 20
-10.23089074845004
 30
0.0
 11
25.34843681518123
 21
-10.2189683214378
 31
0.0
  0
LINE
  5
808
330
CA0
100
AcDbEntity
  8
TITLEBLOCK_NOTES
  6
Continuous
 62
     3
100
AcDbLine
 10
24.66540232094434
 20
-10.21171492649918
 30
0.0
 11
25.34843681518123
 21
-10.1997925474192
 31
0.0
  0
LINE
  5
809
330
CA0
100
AcDbEntity
  8
TITLEBLOCK_NOTES
  6
Continuous
 62
     3
100
AcDbLine
 10
24.66540232094434
 20
-10.1925391045484
 30
0.0
 11
25.34843681518123
 21
-10.1806167254684
 31
0.0
  0
LINE
  5
80A
330
CA0
100
AcDbEntity
  8
TITLEBLOCK_NOTES
  6
Continuous
 62
     3
100
AcDbLine
 10
24.66540232094434
 20
-10.53770385173058
 30
0.0
 11
25.34843681518123
 21
-10.52578142471835
 31
0.0
  0
LINE
  5
80B
330
CA0
100
AcDbEntity
  8
TITLEBLOCK_NOTES
  6
Continuous
 62
     3
100
AcDbLine
 10
24.66540232094434
 20
-10.51852802977973
 30
0.0
 11
25.34843681518123
 21
-10.50660560276757
 31
0.0
  0
LINE
  5
80C
330
CA0
100
AcDbEntity
  8
TITLEBLOCK_NOTES
  6
Continuous
 62
     3
100
AcDbLine
 10
24.66540232094434
 20
-10.49935220782894
 30
0.0
 11
25.34843681518123
 21
-10.48742982874902
 31
0.0
  0
LINE
  5
80D
330
CA0
100
AcDbEntity
  8
TITLEBLOCK_NOTES
  6
Continuous
 62
     3
100
AcDbLine
 10
24.66540232094434
 20
-10.48017638587816
 30
0.0
 11
25.34843681518123
 21
-10.46825400679824
 31
0.0
  0
LINE
  5
80E
330
CA0
100
AcDbEntity
  8
TITLEBLOCK_NOTES
  6
Continuous
 62
     3
100
AcDbLine
 10
24.66540232094434
 20
-10.46100056392737
 30
0.0
 11
25.34843681518123
 21
-10.44907818484738
 31
0.0
  0
LINE
  5
80F
330
CA0
100
AcDbEntity
  8
TITLEBLOCK_NOTES
  6
Continuous
 62
     3
100
AcDbLine
 10
24.66540232094434
 20
-10.57605549563222
 30
0.0
 11
25.34843681518123
 21
-10.56413306861992
 31
0.0
  0
LINE
  5
810
330
CA0
100
AcDbEntity
  8
TITLEBLOCK_NOTES
  6
Continuous
 62
     3
100
AcDbLine
 10
24.66540232094434
 20
-10.55687967368137
 30
0.0
 11
25.34843681518123
 21
-10.54495724666921
 31
0.0
  0
LINE
  5
811
330
CA0
100
AcDbEntity
  8
TITLEBLOCK_NOTES
  6
Continuous
 62
     3
100
AcDbLine
 10
24.66540232094434
 20
-10.17336328259754
 30
0.0
 11
25.34843681518123
 21
-10.16144090351762
 31
0.0
  0
LINE
  5
812
330
CA0
100
AcDbEntity
  8
TITLEBLOCK_NOTES
  6
Continuous
 62
     3
100
AcDbLine
 10
24.66540232094434
 20
-9.635034511087628
 30
0.0
 11
24.81981969173773
 21
-9.63233913714275
 31
0.0
  0
LINE
  5
813
330
CA0
100
AcDbEntity
  8
TITLEBLOCK_NOTES
  6
Continuous
 62
     3
100
AcDbLine
 10
24.66540232094434
 20
-9.304792653603309
 30
0.0
 11
24.81981969173773
 21
-9.302097327590674
 31
0.0
  0
LINE
  5
814
330
CA0
100
AcDbEntity
  8
TITLEBLOCK_NOTES
  6
Continuous
 62
     3
100
AcDbLine
 10
24.66540232094434
 20
-10.72946202330634
 30
0.0
 11
25.34843681518123
 21
-10.71753964422636
 31
0.0
  0
LINE
  5
815
330
CA0
100
AcDbEntity
  8
TITLEBLOCK_NOTES
  6
Continuous
 62
     3
100
AcDbLine
 10
24.66540232094434
 20
-10.71028620135556
 30
0.0
 11
25.34843681518123
 21
-10.69836382227557
 31
0.0
  0
LINE
  5
816
330
CA0
100
AcDbEntity
  8
TITLEBLOCK_NOTES
  6
Continuous
 62
     3
100
AcDbLine
 10
24.66540232094434
 20
-10.69111042733701
 30
0.0
 11
25.34843681518123
 21
-10.67918800032478
 31
0.0
  0
LINE
  5
817
330
CA0
100
AcDbEntity
  8
TITLEBLOCK_NOTES
  6
Continuous
 62
     3
100
AcDbLine
 10
24.66540232094434
 20
-10.67193460538616
 30
0.0
 11
25.34843681518123
 21
-10.66001217837393
 31
0.0
  0
LINE
  5
818
330
CA0
100
AcDbEntity
  8
TITLEBLOCK_NOTES
  6
Continuous
 62
     3
100
AcDbLine
 10
24.66540232094434
 20
-10.65275878343537
 30
0.0
 11
25.34843681518123
 21
-10.64083635642321
 31
0.0
  0
LINE
  5
819
330
CA0
100
AcDbEntity
  8
TITLEBLOCK_NOTES
  6
Continuous
 62
     3
100
AcDbLine
 10
24.66540232094434
 20
-10.63358296148458
 30
0.0
 11
25.34843681518123
 21
-10.62166053447235
 31
0.0
  0
LINE
  5
81A
330
CA0
100
AcDbEntity
  8
TITLEBLOCK_NOTES
  6
Continuous
 62
     3
100
AcDbLine
 10
24.66540232094434
 20
-10.6144071395338
 30
0.0
 11
25.34843681518123
 21
-10.60248471252157
 31
0.0
  0
LINE
  5
81B
330
CA0
100
AcDbEntity
  8
TITLEBLOCK_NOTES
  6
Continuous
 62
     3
100
AcDbLine
 10
24.66540232094434
 20
-10.59523131758295
 30
0.0
 11
25.34843681518123
 21
-10.58330889057078
 31
0.0
  0
LINE
  5
81C
330
CA0
100
AcDbEntity
  8
TITLEBLOCK_NOTES
  6
Continuous
 62
     3
100
AcDbLine
 10
23.69477435544972
 20
-8.55518458467232
 30
0.0
 11
23.69477435544972
 21
-8.962608668953992
 31
0.0
  0
LINE
  5
81D
330
CA0
100
AcDbEntity
  8
TITLEBLOCK_NOTES
  6
Continuous
 62
     3
100
AcDbLine
 10
23.69477435544972
 20
-8.962608668953992
 30
0.0
 11
24.23401211405788
 21
-8.962608668953992
 31
0.0
  0
LINE
  5
81E
330
CA0
100
AcDbEntity
  8
TITLEBLOCK_NOTES
  6
Continuous
 62
     3
100
AcDbLine
 10
23.71874047805464
 20
-8.9386425463492
 30
0.0
 11
24.2579782366626
 21
-8.9386425463492
 31
0.0
  0
LINE
  5
81F
330
CA0
100
AcDbEntity
  8
TITLEBLOCK_NOTES
  6
Continuous
 62
     3
100
AcDbLine
 10
23.71874047805464
 20
-8.9386425463492
 30
0.0
 11
23.71874047805464
 21
-8.579150707277106
 31
0.0
  0
LINE
  5
820
330
CA0
100
AcDbEntity
  8
TITLEBLOCK_NOTES
  6
Continuous
 62
     3
100
AcDbLine
 10
24.00633394931209
 20
-10.43415304233402
 30
0.0
 11
24.21004599145303
 21
-10.4305972366554
 31
0.0
  0
LINE
  5
821
330
CA0
100
AcDbEntity
  8
TITLEBLOCK_NOTES
  6
Continuous
 62
     3
100
AcDbLine
 10
24.00633394931209
 20
-10.41497722038323
 30
0.0
 11
24.21004599145303
 21
-10.41142141470462
 31
0.0
  0
LINE
  5
822
330
CA0
100
AcDbEntity
  8
TITLEBLOCK_NOTES
  6
Continuous
 62
     3
100
AcDbLine
 10
24.00633394931209
 20
-10.39580139843245
 30
0.0
 11
24.21004599145303
 21
-10.39224559275383
 31
0.0
  0
LINE
  5
823
330
CA0
100
AcDbEntity
  8
TITLEBLOCK_NOTES
  6
Continuous
 62
     3
100
AcDbLine
 10
24.00633394931209
 20
-10.37662557648159
 30
0.0
 11
24.21004599145303
 21
-10.37306977080297
 31
0.0
  0
LINE
  5
824
330
CA0
100
AcDbEntity
  8
TITLEBLOCK_NOTES
  6
Continuous
 62
     3
100
AcDbLine
 10
24.00633394931209
 20
-10.35744975453081
 30
0.0
 11
24.21004599145303
 21
-10.35389394885219
 31
0.0
  0
LINE
  5
825
330
CA0
100
AcDbEntity
  8
TITLEBLOCK_NOTES
  6
Continuous
 62
     3
100
AcDbLine
 10
24.00633394931209
 20
-10.33827393258002
 30
0.0
 11
24.21004599145303
 21
-10.3347181269014
 31
0.0
  0
LINE
  5
826
330
CA0
100
AcDbEntity
  8
TITLEBLOCK_NOTES
  6
Continuous
 62
     3
100
AcDbLine
 10
24.00633394931209
 20
-10.54920792610657
 30
0.0
 11
24.21004599145303
 21
-10.54565212042795
 31
0.0
  0
LINE
  5
827
330
CA0
100
AcDbEntity
  8
TITLEBLOCK_NOTES
  6
Continuous
 62
     3
100
AcDbLine
 10
24.00633394931209
 20
-10.53003210415578
 30
0.0
 11
24.21004599145303
 21
-10.52647629847716
 31
0.0
  0
LINE
  5
828
330
CA0
100
AcDbEntity
  8
TITLEBLOCK_NOTES
  6
Continuous
 62
     3
100
AcDbLine
 10
24.00633394931209
 20
-10.51085628220499
 30
0.0
 11
24.21004599145303
 21
-10.50730047652637
 31
0.0
  0
LINE
  5
829
330
CA0
100
AcDbEntity
  8
TITLEBLOCK_NOTES
  6
Continuous
 62
     3
100
AcDbLine
 10
24.00633394931209
 20
-10.49168046025421
 30
0.0
 11
24.21004599145303
 21
-10.48812465457559
 31
0.0
  0
LINE
  5
82A
330
CA0
100
AcDbEntity
  8
TITLEBLOCK_NOTES
  6
Continuous
 62
     3
100
AcDbLine
 10
24.00633394931209
 20
-10.47250463830342
 30
0.0
 11
24.21004599145303
 21
-10.46894883262472
 31
0.0
  0
LINE
  5
82B
330
CA0
100
AcDbEntity
  8
TITLEBLOCK_NOTES
  6
Continuous
 62
     3
100
AcDbLine
 10
24.00633394931209
 20
-10.45332886428481
 30
0.0
 11
24.21004599145303
 21
-10.44977305860619
 31
0.0
  0
LINE
  5
82C
330
CA0
100
AcDbEntity
  8
TITLEBLOCK_NOTES
  6
Continuous
 62
     3
100
AcDbLine
 10
24.00633394931209
 20
-10.58755957000821
 30
0.0
 11
24.21004599145303
 21
-10.58400376432959
 31
0.0
  0
LINE
  5
82D
330
CA0
100
AcDbEntity
  8
TITLEBLOCK_NOTES
  6
Continuous
 62
     3
100
AcDbLine
 10
24.00633394931209
 20
-10.56838374805742
 30
0.0
 11
24.21004599145303
 21
-10.56482794237873
 31
0.0
  0
LINE
  5
82E
330
CA0
100
AcDbEntity
  8
TITLEBLOCK_NOTES
  6
Continuous
 62
     3
100
AcDbLine
 10
24.00633394931209
 20
-10.31909811062923
 30
0.0
 11
24.21004599145303
 21
-10.31554230495061
 31
0.0
  0
LINE
  5
82F
330
CA0
100
AcDbEntity
  8
TITLEBLOCK_NOTES
  6
Continuous
 62
     3
100
AcDbLine
 10
24.00633394931209
 20
-10.29992228867845
 30
0.0
 11
24.21004599145303
 21
-10.29636648299983
 31
0.0
  0
LINE
  5
830
330
CA0
100
AcDbEntity
  8
TITLEBLOCK_NOTES
  6
Continuous
 62
     3
100
AcDbLine
 10
24.00633394931209
 20
-10.28074646672759
 30
0.0
 11
24.21004599145303
 21
-10.27719066104896
 31
0.0
  0
LINE
  5
831
330
CA0
100
AcDbEntity
  8
TITLEBLOCK_NOTES
  6
Continuous
 62
     3
100
AcDbLine
 10
24.07054154045051
 20
-10.00975840283913
 30
0.0
 11
24.21004599145303
 21
-10.00732334891803
 31
0.0
  0
LINE
  5
832
330
CA0
100
AcDbEntity
  8
TITLEBLOCK_NOTES
  6
Continuous
 62
     3
100
AcDbLine
 10
24.21004599145303
 20
-10.73610174170952
 30
0.0
 11
24.66540232094434
 21
-10.73610174170952
 31
0.0
  0
LINE
  5
833
330
CA0
100
AcDbEntity
  8
TITLEBLOCK_NOTES
  6
Continuous
 62
     3
100
AcDbLine
 10
24.00633394931209
 20
-10.72179032366378
 30
0.0
 11
24.21004599145303
 21
-10.71823451798516
 31
0.0
  0
LINE
  5
834
330
CA0
100
AcDbEntity
  8
TITLEBLOCK_NOTES
  6
Continuous
 62
     3
100
AcDbLine
 10
24.00633394931209
 20
-10.702614501713
 30
0.0
 11
24.21004599145303
 21
-10.69905869603438
 31
0.0
  0
LINE
  5
835
330
CA0
100
AcDbEntity
  8
TITLEBLOCK_NOTES
  6
Continuous
 62
     3
100
AcDbLine
 10
24.00633394931209
 20
-10.68343867976221
 30
0.0
 11
24.21004599145303
 21
-10.67988287408359
 31
0.0
  0
LINE
  5
836
330
CA0
100
AcDbEntity
  8
TITLEBLOCK_NOTES
  6
Continuous
 62
     3
100
AcDbLine
 10
24.00633394931209
 20
-10.66426285781142
 30
0.0
 11
24.21004599145303
 21
-10.6607070521328
 31
0.0
  0
LINE
  5
837
330
CA0
100
AcDbEntity
  8
TITLEBLOCK_NOTES
  6
Continuous
 62
     3
100
AcDbLine
 10
24.00633394931209
 20
-10.64508703586063
 30
0.0
 11
24.21004599145303
 21
-10.64153123018195
 31
0.0
  0
LINE
  5
838
330
CA0
100
AcDbEntity
  8
TITLEBLOCK_NOTES
  6
Continuous
 62
     3
100
AcDbLine
 10
24.00633394931209
 20
-10.62591121390978
 30
0.0
 11
24.21004599145303
 21
-10.62235540823116
 31
0.0
  0
LINE
  5
839
330
CA0
100
AcDbEntity
  8
TITLEBLOCK_NOTES
  6
Continuous
 62
     3
100
AcDbLine
 10
24.00633394931209
 20
-10.60673539195899
 30
0.0
 11
24.21004599145303
 21
-10.60317958628038
 31
0.0
  0
LINE
  5
83A
330
CA0
100
AcDbEntity
  8
TITLEBLOCK_NOTES
  6
Continuous
 62
     3
100
AcDbLine
 10
24.2579782366626
 20
-10.68816949649988
 30
0.0
 11
24.61747007573477
 21
-10.68816949649988
 31
0.0
  0
LINE
  5
83B
330
CA0
100
AcDbEntity
  8
TITLEBLOCK_NOTES
  6
Continuous
 62
     3
100
AcDbLine
 10
24.23401211405788
 20
-10.71213561910473
 30
0.0
 11
24.64143619833956
 21
-10.71213561910473
 31
0.0
  0
LINE
  5
83C
330
CA0
100
AcDbEntity
  8
TITLEBLOCK_NOTES
  6
Continuous
 62
     3
100
AcDbLine
 10
24.2579782366626
 20
-8.9386425463492
 30
0.0
 11
24.2579782366626
 21
-10.68816949649988
 31
0.0
  0
LINE
  5
83D
330
CA0
100
AcDbEntity
  8
TITLEBLOCK_NOTES
  6
Continuous
 62
     3
100
AcDbLine
 10
24.61747007573477
 20
-8.9386425463492
 30
0.0
 11
24.61747007573477
 21
-10.68816949649988
 31
0.0
  0
LINE
  5
83E
330
CA0
100
AcDbEntity
  8
TITLEBLOCK_NOTES
  6
Continuous
 62
     3
100
AcDbLine
 10
24.64143619833956
 20
-8.962608668953992
 30
0.0
 11
24.64143619833956
 21
-10.71213561910473
 31
0.0
  0
LINE
  5
83F
330
CA0
100
AcDbEntity
  8
TITLEBLOCK_NOTES
  6
Continuous
 62
     3
100
AcDbLine
 10
24.66540232094434
 20
-10.73610174170952
 30
0.0
 11
24.66540232094434
 21
-8.986574791558776
 31
0.0
  0
LINE
  5
840
330
CA0
100
AcDbEntity
  8
TITLEBLOCK_NOTES
  6
Continuous
 62
     3
100
AcDbLine
 10
24.23401211405788
 20
-8.962608668953992
 30
0.0
 11
24.23401211405788
 21
-10.71213561910473
 31
0.0
  0
LINE
  5
841
330
CA0
100
AcDbEntity
  8
TITLEBLOCK_NOTES
  6
Continuous
 62
     3
100
AcDbLine
 10
24.21004599145303
 20
-8.986574791558776
 30
0.0
 11
24.21004599145303
 21
-10.73610174170952
 31
0.0
  0
LINE
  5
842
330
CA0
100
AcDbEntity
  8
TITLEBLOCK_NOTES
  6
Continuous
 62
     3
100
AcDbLine
 10
23.98236782670737
 20
-10.30471153482307
 30
0.0
 11
23.98236782670737
 21
-10.71213561910473
 31
0.0
  0
LINE
  5
843
330
CA0
100
AcDbEntity
  8
TITLEBLOCK_NOTES
  6
Continuous
 62
     3
100
AcDbLine
 10
23.95840170410253
 20
-10.68816949649988
 30
0.0
 11
23.95840170410253
 21
-10.32867765742786
 31
0.0
  0
LINE
  5
844
330
CA0
100
AcDbEntity
  8
TITLEBLOCK_NOTES
  6
Continuous
 62
     3
100
AcDbLine
 10
24.00633394931209
 20
-10.73610174170952
 30
0.0
 11
24.00633394931209
 21
-10.28074541221821
 31
0.0
  0
LINE
  5
845
330
CA0
100
AcDbEntity
  8
TITLEBLOCK_NOTES
  6
Continuous
 62
     3
100
AcDbLine
 10
26.4748445776071
 20
-9.902925480884146
 30
0.0
 11
26.4748445776071
 21
-9.346901610342435
 31
0.0
  0
LINE
  5
846
330
CA0
100
AcDbEntity
  8
TITLEBLOCK_NOTES
  6
Continuous
 62
     3
100
AcDbLine
 10
26.50353437504499
 20
-9.319425792878863
 30
0.0
 11
26.49881146712785
 21
-9.899893430848898
 31
0.0
  0
LINE
  5
847
330
CA0
100
AcDbEntity
  8
TITLEBLOCK_NOTES
  6
Continuous
 62
     3
100
AcDbLine
 10
26.52749968280176
 20
-9.319620781252339
 30
0.0
 11
26.52277682281667
 21
-9.900088419222445
 31
0.0
  0
LINE
  5
848
330
CA0
100
AcDbEntity
  8
TITLEBLOCK_NOTES
  6
Continuous
 62
     3
100
AcDbLine
 10
25.18067395694759
 20
-8.962608668953992
 30
0.0
 11
25.18067395694759
 21
-8.55518458467232
 31
0.0
  0
LINE
  5
849
330
CA0
100
AcDbEntity
  8
TITLEBLOCK_NOTES
  6
Continuous
 62
     3
100
AcDbLine
 10
25.34843681518123
 20
-8.531218462067469
 30
0.0
 11
25.80379314467255
 21
-8.531218462067469
 31
0.0
  0
LINE
  5
84A
330
CA0
100
AcDbEntity
  8
TITLEBLOCK_NOTES
  6
Continuous
 62
     3
100
AcDbLine
 10
25.37240293778603
 20
-8.55518458467232
 30
0.0
 11
25.7798270220677
 21
-8.55518458467232
 31
0.0
  0
LINE
  5
84B
330
CA0
100
AcDbEntity
  8
TITLEBLOCK_NOTES
  6
Continuous
 62
     3
100
AcDbLine
 10
25.39636906039088
 20
-8.579150707277106
 30
0.0
 11
25.75586089946297
 21
-8.579150707277106
 31
0.0
  0
LINE
  5
84C
330
CA0
100
AcDbEntity
  8
TITLEBLOCK_NOTES
  6
Continuous
 62
     3
100
AcDbLine
 10
25.15670783434274
 20
-8.579150707277106
 30
0.0
 11
25.15670783434274
 21
-8.9386425463492
 31
0.0
  0
LINE
  5
84D
330
CA0
100
AcDbEntity
  8
TITLEBLOCK_NOTES
  6
Continuous
 62
     3
100
AcDbLine
 10
25.20464007955224
 20
-8.78239100026059
 30
0.0
 11
25.34843681518123
 21
-8.78239100026059
 31
0.0
  0
LINE
  5
84E
330
CA0
100
AcDbEntity
  8
TITLEBLOCK_NOTES
  6
Continuous
 62
     3
100
AcDbLine
 10
25.20464007955224
 20
-8.806357122865373
 30
0.0
 11
25.34843681518123
 21
-8.806357122865373
 31
0.0
  0
LINE
  5
84F
330
CA0
100
AcDbEntity
  8
TITLEBLOCK_NOTES
  6
Continuous
 62
     3
100
AcDbLine
 10
25.20464007955224
 20
-8.758424877655734
 30
0.0
 11
25.34843681518123
 21
-8.758424877655734
 31
0.0
  0
LINE
  5
850
330
CA0
100
AcDbEntity
  8
TITLEBLOCK_NOTES
  6
Continuous
 62
     3
100
AcDbLine
 10
25.20464007955224
 20
-8.83032324547023
 30
0.0
 11
25.34843681518123
 21
-8.83032324547023
 31
0.0
  0
LINE
  5
851
330
CA0
100
AcDbEntity
  8
TITLEBLOCK_NOTES
  6
Continuous
 62
     3
100
AcDbLine
 10
25.80379314467255
 20
-8.806357122865373
 30
0.0
 11
26.30944458733329
 21
-8.806357122865373
 31
0.0
  0
LINE
  5
852
330
CA0
100
AcDbEntity
  8
TITLEBLOCK_NOTES
  6
Continuous
 62
     3
100
AcDbLine
 10
25.80379314467255
 20
-8.83032324547023
 30
0.0
 11
26.2873051146612
 21
-8.83032324547023
 31
0.0
  0
LINE
  5
853
330
CA0
100
AcDbEntity
  8
TITLEBLOCK_NOTES
  6
Continuous
 62
     3
100
AcDbLine
 10
25.80379314467255
 20
-10.44112991615002
 30
0.0
 11
26.28481369241971
 21
-10.43273367268889
 31
0.0
  0
LINE
  5
854
330
CA0
100
AcDbEntity
  8
TITLEBLOCK_NOTES
  6
Continuous
 62
     3
100
AcDbLine
 10
25.80379314467255
 20
-10.42195409419923
 30
0.0
 11
26.26871109430283
 21
-10.41383892542396
 31
0.0
  0
LINE
  5
855
330
CA0
100
AcDbEntity
  8
TITLEBLOCK_NOTES
  6
Continuous
 62
     3
100
AcDbLine
 10
25.80379314467255
 20
-10.40277827224838
 30
0.0
 11
26.25347568636604
 21
-10.39492903156961
 31
0.0
  0
LINE
  5
856
330
CA0
100
AcDbEntity
  8
TITLEBLOCK_NOTES
  6
Continuous
 62
     3
100
AcDbLine
 10
25.80379314467255
 20
-10.38360245029759
 30
0.0
 11
26.23905392829198
 21
-10.37600494977063
 31
0.0
  0
LINE
  5
857
330
CA0
100
AcDbEntity
  8
TITLEBLOCK_NOTES
  6
Continuous
 62
     3
100
AcDbLine
 10
25.80379314467255
 20
-10.36442662834681
 30
0.0
 11
26.22539918200562
 21
-10.35706744694304
 31
0.0
  0
LINE
  5
858
330
CA0
100
AcDbEntity
  8
TITLEBLOCK_NOTES
  6
Continuous
 62
     3
100
AcDbLine
 10
25.80379314467255
 20
-10.34525080639594
 30
0.0
 11
26.21247056130197
 21
-10.33811729000269
 31
0.0
  0
LINE
  5
859
330
CA0
100
AcDbEntity
  8
TITLEBLOCK_NOTES
  6
Continuous
 62
     3
100
AcDbLine
 10
25.80379314467255
 20
-10.46030569016856
 30
0.0
 11
26.30184531331321
 21
-10.45161217092266
 31
0.0
  0
LINE
  5
85A
330
CA0
100
AcDbEntity
  8
TITLEBLOCK_NOTES
  6
Continuous
 62
     3
100
AcDbLine
 10
25.80379314467255
 20
-10.32607498444517
 30
0.0
 11
26.20023206906491
 21
-10.31915510206878
 31
0.0
  0
LINE
  5
85B
330
CA0
100
AcDbEntity
  8
TITLEBLOCK_NOTES
  6
Continuous
 62
     3
100
AcDbLine
 10
25.80379314467255
 20
-10.30689916249438
 30
0.0
 11
26.18865183035118
 21
-10.30018141039604
 31
0.0
  0
LINE
  5
85C
330
CA0
100
AcDbEntity
  8
TITLEBLOCK_NOTES
  6
Continuous
 62
     3
100
AcDbLine
 10
25.80379314467255
 20
-10.28772334054359
 30
0.0
 11
26.17770156513635
 21
-10.2811967422391
 31
0.0
  0
LINE
  5
85D
330
CA0
100
AcDbEntity
  8
TITLEBLOCK_NOTES
  6
Continuous
 62
     3
100
AcDbLine
 10
25.80379314467255
 20
-10.2685475185928
 30
0.0
 11
26.16735591726249
 21
-10.26220152898823
 31
0.0
  0
LINE
  5
85E
330
CA0
100
AcDbEntity
  8
TITLEBLOCK_NOTES
  6
Continuous
 62
     3
100
AcDbLine
 10
25.80379314467255
 20
-10.24937169664202
 30
0.0
 11
26.15759235857459
 21
-10.24319610616921
 31
0.0
  0
LINE
  5
85F
330
CA0
100
AcDbEntity
  8
TITLEBLOCK_NOTES
  6
Continuous
 62
     3
100
AcDbLine
 10
25.80379314467255
 20
-10.23019587469117
 30
0.0
 11
26.14839056580043
 21
-10.22418090517211
 31
0.0
  0
LINE
  5
860
330
CA0
100
AcDbEntity
  8
TITLEBLOCK_NOTES
  6
Continuous
 62
     3
100
AcDbLine
 10
25.80379314467255
 20
-10.21102005274038
 30
0.0
 11
26.13973232468696
 21
-10.20515621359046
 31
0.0
  0
LINE
  5
861
330
CA0
100
AcDbEntity
  8
TITLEBLOCK_NOTES
  6
Continuous
 62
     3
100
AcDbLine
 10
25.80379314467255
 20
-10.19184423078959
 30
0.0
 11
26.13160124240637
 21
-10.18612231901772
 31
0.0
  0
LINE
  5
862
330
CA0
100
AcDbEntity
  8
TITLEBLOCK_NOTES
  6
Continuous
 62
     3
100
AcDbLine
 10
25.80379314467255
 20
-10.17266845677105
 30
0.0
 11
26.12398260375925
 21
-10.1670795090473
 31
0.0
  0
LINE
  5
863
330
CA0
100
AcDbEntity
  8
TITLEBLOCK_NOTES
  6
Continuous
 62
     3
100
AcDbLine
 10
25.16912343622599
 20
-10.00975840283913
 30
0.0
 11
25.34843681518123
 21
-10.00662847515916
 31
0.0
  0
LINE
  5
864
330
CA0
100
AcDbEntity
  8
TITLEBLOCK_NOTES
  6
Continuous
 62
     3
100
AcDbLine
 10
26.09138661593016
 20
-9.923370069365619
 30
0.0
 11
26.09138661593016
 21
-9.31919552637288
 31
0.0
  0
LINE
  5
865
330
CA0
100
AcDbEntity
  8
TITLEBLOCK_NOTES
  6
Continuous
 62
     3
100
AcDbLine
 10
26.06742049332543
 20
-9.923370069365619
 30
0.0
 11
26.06742049332543
 21
-9.31919552637288
 31
0.0
  0
LINE
  5
866
330
CA0
100
AcDbEntity
  8
TITLEBLOCK_NOTES
  6
Continuous
 62
     3
100
AcDbLine
 10
26.115352738535
 20
-9.921253573146124
 30
0.0
 11
26.115352738535
 21
-9.322100508026018
 31
0.0
  0
LINE
  5
867
330
CA0
100
AcDbEntity
  8
TITLEBLOCK_NOTES
  6
Continuous
 62
     3
100
AcDbLine
 10
25.80379314467255
 20
-9.998680206461859
 30
0.0
 11
26.07642974227051
 21
-9.993921301428429
 31
0.0
  0
LINE
  5
868
330
CA0
100
AcDbEntity
  8
TITLEBLOCK_NOTES
  6
Continuous
 62
     3
100
AcDbLine
 10
25.80379314467255
 20
-10.00975840283913
 30
0.0
 11
26.07924638479577
 21
-10.00975840283913
 31
0.0
  0
LINE
  5
869
330
CA0
100
AcDbEntity
  8
TITLEBLOCK_NOTES
  6
Continuous
 62
     3
100
AcDbLine
 10
25.80379314467255
 20
-9.979504384511006
 30
0.0
 11
26.07342012452603
 21
-9.974798013218375
 31
0.0
  0
LINE
  5
86A
330
CA0
100
AcDbEntity
  8
TITLEBLOCK_NOTES
  6
Continuous
 62
     3
100
AcDbLine
 10
25.80379314467255
 20
-9.960328562560221
 30
0.0
 11
26.07083374850675
 21
-9.955667343442602
 31
0.0
  0
LINE
  5
86B
330
CA0
100
AcDbEntity
  8
TITLEBLOCK_NOTES
  6
Continuous
 62
     3
100
AcDbLine
 10
25.80379314467255
 20
-9.941152740609432
 30
0.0
 11
26.06866740275227
 21
-9.936529340033214
 31
0.0
  0
LINE
  5
86C
330
CA0
100
AcDbEntity
  8
TITLEBLOCK_NOTES
  6
Continuous
 62
     3
100
AcDbLine
 10
25.80379314467255
 20
-9.921976918658579
 30
0.0
 11
26.06742049332543
 21
-9.917375279321776
 31
0.0
  0
LINE
  5
86D
330
CA0
100
AcDbEntity
  8
TITLEBLOCK_NOTES
  6
Continuous
 62
     3
100
AcDbLine
 10
25.80379314467255
 20
-9.902801096707792
 30
0.0
 11
26.06742049332543
 21
-9.898199457370989
 31
0.0
  0
LINE
  5
86E
330
CA0
100
AcDbEntity
  8
TITLEBLOCK_NOTES
  6
Continuous
 62
     3
100
AcDbLine
 10
25.80379314467255
 20
-9.883625274757008
 30
0.0
 11
26.06742049332543
 21
-9.879023683352381
 31
0.0
  0
LINE
  5
86F
330
CA0
100
AcDbEntity
  8
TITLEBLOCK_NOTES
  6
Continuous
 62
     3
100
AcDbLine
 10
25.80379314467255
 20
-9.864449452806221
 30
0.0
 11
26.06742049332543
 21
-9.859847861401593
 31
0.0
  0
LINE
  5
870
330
CA0
100
AcDbEntity
  8
TITLEBLOCK_NOTES
  6
Continuous
 62
     3
100
AcDbLine
 10
25.80379314467255
 20
-9.845273678787677
 30
0.0
 11
26.06742049332543
 21
-9.840672039450806
 31
0.0
  0
LINE
  5
871
330
CA0
100
AcDbEntity
  8
TITLEBLOCK_NOTES
  6
Continuous
 62
     3
100
AcDbLine
 10
25.80379314467255
 20
-9.826097856836888
 30
0.0
 11
26.06742049332543
 21
-9.821496217500019
 31
0.0
  0
LINE
  5
872
330
CA0
100
AcDbEntity
  8
TITLEBLOCK_NOTES
  6
Continuous
 62
     3
100
AcDbLine
 10
25.80379314467255
 20
-9.806922034886035
 30
0.0
 11
26.06742049332543
 21
-9.802320395549168
 31
0.0
  0
LINE
  5
873
330
CA0
100
AcDbEntity
  8
TITLEBLOCK_NOTES
  6
Continuous
 62
     3
100
AcDbLine
 10
25.80379314467255
 20
-9.787746212935246
 30
0.0
 11
26.06742049332543
 21
-9.783144573598381
 31
0.0
  0
LINE
  5
874
330
CA0
100
AcDbEntity
  8
TITLEBLOCK_NOTES
  6
Continuous
 62
     3
100
AcDbLine
 10
25.80379314467255
 20
-9.768570390984461
 30
0.0
 11
26.06742049332543
 21
-9.763968751647594
 31
0.0
  0
LINE
  5
875
330
CA0
100
AcDbEntity
  8
TITLEBLOCK_NOTES
  6
Continuous
 62
     3
100
AcDbLine
 10
25.80379314467255
 20
-9.749394569033672
 30
0.0
 11
26.06742049332543
 21
-9.744792929696803
 31
0.0
  0
LINE
  5
876
330
CA0
100
AcDbEntity
  8
TITLEBLOCK_NOTES
  6
Continuous
 62
     3
100
AcDbLine
 10
25.80379314467255
 20
-9.730218747082883
 30
0.0
 11
26.06742049332543
 21
-9.725617107746019
 31
0.0
  0
LINE
  5
877
330
CA0
100
AcDbEntity
  8
TITLEBLOCK_NOTES
  6
Continuous
 62
     3
100
AcDbLine
 10
25.80379314467255
 20
-9.711042925132032
 30
0.0
 11
26.06742049332543
 21
-9.706441285795232
 31
0.0
  0
LINE
  5
878
330
CA0
100
AcDbEntity
  8
TITLEBLOCK_NOTES
  6
Continuous
 62
     3
100
AcDbLine
 10
25.80379314467255
 20
-9.691867103181248
 30
0.0
 11
26.06742049332543
 21
-9.687265463844381
 31
0.0
  0
LINE
  5
879
330
CA0
100
AcDbEntity
  8
TITLEBLOCK_NOTES
  6
Continuous
 62
     3
100
AcDbLine
 10
25.80379314467255
 20
-9.672691281230461
 30
0.0
 11
26.06742049332543
 21
-9.668089641893594
 31
0.0
  0
LINE
  5
87A
330
CA0
100
AcDbEntity
  8
TITLEBLOCK_NOTES
  6
Continuous
 62
     3
100
AcDbLine
 10
25.80379314467255
 20
-9.653515459279674
 30
0.0
 11
26.06742049332543
 21
-9.648913819942807
 31
0.0
  0
LINE
  5
87B
330
CA0
100
AcDbEntity
  8
TITLEBLOCK_NOTES
  6
Continuous
 62
     3
100
AcDbLine
 10
25.80379314467255
 20
-9.63233913714275
 30
0.0
 11
26.06742049332543
 21
-9.63233913714275
 31
0.0
  0
LINE
  5
87C
330
CA0
100
AcDbEntity
  8
TITLEBLOCK_NOTES
  6
Continuous
 62
     3
100
AcDbLine
 10
25.80379314467255
 20
-10.15349263482018
 30
0.0
 11
26.11686303564934
 21
-10.14802797540838
 31
0.0
  0
LINE
  5
87D
330
CA0
100
AcDbEntity
  8
TITLEBLOCK_NOTES
  6
Continuous
 62
     3
100
AcDbLine
 10
25.80379314467255
 20
-10.13431681286947
 30
0.0
 11
26.11023069881188
 21
-10.12896790982972
 31
0.0
  0
LINE
  5
87E
330
CA0
100
AcDbEntity
  8
TITLEBLOCK_NOTES
  6
Continuous
 62
     3
100
AcDbLine
 10
25.80379314467255
 20
-10.11514099091862
 30
0.0
 11
26.1040746646951
 21
-10.10989955197271
 31
0.0
  0
LINE
  5
87F
330
CA0
100
AcDbEntity
  8
TITLEBLOCK_NOTES
  6
Continuous
 62
     3
100
AcDbLine
 10
25.80379314467255
 20
-10.10411321926326
 30
0.0
 11
26.10229982951948
 21
-10.10411321926326
 31
0.0
  0
LINE
  5
880
330
CA0
100
AcDbEntity
  8
TITLEBLOCK_NOTES
  6
Continuous
 62
     3
100
AcDbLine
 10
25.80379314467255
 20
-9.634339637328819
 30
0.0
 11
25.91840163544545
 21
-9.63233913714275
 31
0.0
  0
LINE
  5
881
330
CA0
100
AcDbEntity
  8
TITLEBLOCK_NOTES
  6
Continuous
 62
     3
100
AcDbLine
 10
25.80379314467255
 20
-9.534207643254143
 30
0.0
 11
26.06742049332543
 21
-9.529606003917278
 31
0.0
  0
LINE
  5
882
330
CA0
100
AcDbEntity
  8
TITLEBLOCK_NOTES
  6
Continuous
 62
     3
100
AcDbLine
 10
25.80379314467255
 20
-9.515031821303292
 30
0.0
 11
26.06742049332543
 21
-9.510430181966492
 31
0.0
  0
LINE
  5
883
330
CA0
100
AcDbEntity
  8
TITLEBLOCK_NOTES
  6
Continuous
 62
     3
100
AcDbLine
 10
25.80379314467255
 20
-9.495855999352508
 30
0.0
 11
26.06742049332543
 21
-9.491254360015634
 31
0.0
  0
LINE
  5
884
330
CA0
100
AcDbEntity
  8
TITLEBLOCK_NOTES
  6
Continuous
 62
     3
100
AcDbLine
 10
25.80379314467255
 20
-9.476680177401718
 30
0.0
 11
26.06742049332543
 21
-9.472078538064847
 31
0.0
  0
LINE
  5
885
330
CA0
100
AcDbEntity
  8
TITLEBLOCK_NOTES
  6
Continuous
 62
     3
100
AcDbLine
 10
25.80379314467255
 20
-9.537984320718685
 30
0.0
 11
26.06742049332543
 21
-9.537984320718685
 31
0.0
  0
LINE
  5
886
330
CA0
100
AcDbEntity
  8
TITLEBLOCK_NOTES
  6
Continuous
 62
     3
100
AcDbLine
 10
25.80379314467255
 20
-9.161319939952059
 30
0.0
 11
26.10078828616686
 21
-9.161319939952059
 31
0.0
  0
LINE
  5
887
330
CA0
100
AcDbEntity
  8
TITLEBLOCK_NOTES
  6
Continuous
 62
     3
100
AcDbLine
 10
25.80379314467255
 20
-9.137353817347271
 30
0.0
 11
26.10854127889728
 21
-9.137353817347271
 31
0.0
  0
LINE
  5
888
330
CA0
100
AcDbEntity
  8
TITLEBLOCK_NOTES
  6
Continuous
 62
     3
100
AcDbLine
 10
25.80379314467255
 20
-9.185286062556915
 30
0.0
 11
26.09377239550321
 21
-9.185286062556915
 31
0.0
  0
LINE
  5
889
330
CA0
100
AcDbEntity
  8
TITLEBLOCK_NOTES
  6
Continuous
 62
     3
100
AcDbLine
 10
25.80379314467255
 20
-9.207742511166614
 30
0.0
 11
26.087851421117
 21
-9.207742511166614
 31
0.0
  0
LINE
  5
88A
330
CA0
100
AcDbEntity
  8
TITLEBLOCK_NOTES
  6
Continuous
 62
     3
100
AcDbLine
 10
25.80379314467255
 20
-9.457504355450931
 30
0.0
 11
26.06742049332543
 21
-9.452902716114062
 31
0.0
  0
LINE
  5
88B
330
CA0
100
AcDbEntity
  8
TITLEBLOCK_NOTES
  6
Continuous
 62
     3
100
AcDbLine
 10
25.80379314467255
 20
-9.438328533500078
 30
0.0
 11
26.06742049332543
 21
-9.433726894163276
 31
0.0
  0
LINE
  5
88C
330
CA0
100
AcDbEntity
  8
TITLEBLOCK_NOTES
  6
Continuous
 62
     3
100
AcDbLine
 10
25.80379314467255
 20
-9.419152711549358
 30
0.0
 11
26.06742049332543
 21
-9.414551072212422
 31
0.0
  0
LINE
  5
88D
330
CA0
100
AcDbEntity
  8
TITLEBLOCK_NOTES
  6
Continuous
 62
     3
100
AcDbLine
 10
25.80379314467255
 20
-9.399976889598505
 30
0.0
 11
26.06742049332543
 21
-9.395375250261631
 31
0.0
  0
LINE
  5
88E
330
CA0
100
AcDbEntity
  8
TITLEBLOCK_NOTES
  6
Continuous
 62
     3
100
AcDbLine
 10
25.80379314467255
 20
-9.380801067647714
 30
0.0
 11
26.06742049332543
 21
-9.376199428310847
 31
0.0
  0
LINE
  5
88F
330
CA0
100
AcDbEntity
  8
TITLEBLOCK_NOTES
  6
Continuous
 62
     3
100
AcDbLine
 10
25.80379314467255
 20
-9.361625245696927
 30
0.0
 11
26.06742049332543
 21
-9.357023606360055
 31
0.0
  0
LINE
  5
890
330
CA0
100
AcDbEntity
  8
TITLEBLOCK_NOTES
  6
Continuous
 62
     3
100
AcDbLine
 10
25.80379314467255
 20
-9.342449423746142
 30
0.0
 11
26.06742049332543
 21
-9.337847784409271
 31
0.0
  0
LINE
  5
891
330
CA0
100
AcDbEntity
  8
TITLEBLOCK_NOTES
  6
Continuous
 62
     3
100
AcDbLine
 10
25.80379314467255
 20
-9.323273601795287
 30
0.0
 11
26.06748270937977
 21
-9.318670907949043
 31
0.0
  0
LINE
  5
892
330
CA0
100
AcDbEntity
  8
TITLEBLOCK_NOTES
  6
Continuous
 62
     3
100
AcDbLine
 10
25.80379314467255
 20
-9.302097327590674
 30
0.0
 11
26.06961176384739
 21
-9.302097327590674
 31
0.0
  0
LINE
  5
893
330
CA0
100
AcDbEntity
  8
TITLEBLOCK_NOTES
  6
Continuous
 62
     3
100
AcDbLine
 10
25.80379314467255
 20
-9.113387694742483
 30
0.0
 11
26.11705188869539
 21
-9.113387694742483
 31
0.0
  0
LINE
  5
894
330
CA0
100
AcDbEntity
  8
TITLEBLOCK_NOTES
  6
Continuous
 62
     3
100
AcDbLine
 10
25.80379314467255
 20
-9.304097779844498
 30
0.0
 11
25.91840163544545
 21
-9.302097327590674
 31
0.0
  0
LINE
  5
895
330
CA0
100
AcDbEntity
  8
TITLEBLOCK_NOTES
  6
Continuous
 62
     3
100
AcDbLine
 10
25.20464007955224
 20
-8.986574791558776
 30
0.0
 11
25.20464007955224
 21
-8.531218462067469
 31
0.0
  0
LINE
  5
896
330
CA0
100
AcDbEntity
  8
TITLEBLOCK_NOTES
  6
Continuous
 62
     3
100
AcDbLine
 10
25.80379314467255
 20
-10.57536062187342
 30
0.0
 11
26.42870351246866
 21
-10.56445277669554
 31
0.0
  0
LINE
  5
897
330
CA0
100
AcDbEntity
  8
TITLEBLOCK_NOTES
  6
Continuous
 62
     3
100
AcDbLine
 10
25.80379314467255
 20
-10.55618479992257
 30
0.0
 11
26.40398969477093
 21
-10.54570834495158
 31
0.0
  0
LINE
  5
898
330
CA0
100
AcDbEntity
  8
TITLEBLOCK_NOTES
  6
Continuous
 62
     3
100
AcDbLine
 10
25.80379314467255
 20
-10.53700897797178
 30
0.0
 11
26.38091784406493
 21
-10.52693524972506
 31
0.0
  0
LINE
  5
899
330
CA0
100
AcDbEntity
  8
TITLEBLOCK_NOTES
  6
Continuous
 62
     3
100
AcDbLine
 10
25.80379314467255
 20
-10.51783315602093
 30
0.0
 11
26.35930318154559
 21
-10.50813670247629
 31
0.0
  0
LINE
  5
89A
330
CA0
100
AcDbEntity
  8
TITLEBLOCK_NOTES
  6
Continuous
 62
     3
100
AcDbLine
 10
25.80379314467255
 20
-10.49865733407014
 30
0.0
 11
26.33899716518504
 21
-10.4893153394788
 31
0.0
  0
LINE
  5
89B
330
CA0
100
AcDbEntity
  8
TITLEBLOCK_NOTES
  6
Continuous
 62
     3
100
AcDbLine
 10
25.80379314467255
 20
-10.47948151211935
 30
0.0
 11
26.31987819087699
 21
-10.47047322181916
 31
0.0
  0
LINE
  5
89C
330
CA0
100
AcDbEntity
  8
TITLEBLOCK_NOTES
  6
Continuous
 62
     3
100
AcDbLine
 10
25.80379314467255
 20
-8.78239100026059
 30
0.0
 11
26.33329629566872
 21
-8.78239100026059
 31
0.0
  0
LINE
  5
89D
330
CA0
100
AcDbEntity
  8
TITLEBLOCK_NOTES
  6
Continuous
 62
     3
100
AcDbLine
 10
25.80379314467255
 20
-8.758424877655734
 30
0.0
 11
26.35906610866081
 21
-8.758424877655734
 31
0.0
  0
LINE
  5
89E
330
CA0
100
AcDbEntity
  8
TITLEBLOCK_NOTES
  6
Continuous
 62
     3
100
AcDbLine
 10
25.34843681518123
 20
-10.73610174170952
 30
0.0
 11
25.80379314467255
 21
-10.73610174170952
 31
0.0
  0
LINE
  5
89F
330
CA0
100
AcDbEntity
  8
TITLEBLOCK_NOTES
  6
Continuous
 62
     3
100
AcDbLine
 10
25.7798270220677
 20
-10.71213561910473
 30
0.0
 11
25.37240293778603
 21
-10.71213561910473
 31
0.0
  0
LINE
  5
8A0
330
CA0
100
AcDbEntity
  8
TITLEBLOCK_NOTES
  6
Continuous
 62
     3
100
AcDbLine
 10
25.39636906039088
 20
-10.68816949649988
 30
0.0
 11
25.75586089946297
 21
-10.68816949649988
 31
0.0
  0
LINE
  5
8A1
330
CA0
100
AcDbEntity
  8
TITLEBLOCK_NOTES
  6
Continuous
 62
     3
100
AcDbLine
 10
25.80379314467255
 20
-10.67123973162735
 30
0.0
 11
26.58853986324424
 21
-10.65754189425263
 31
0.0
  0
LINE
  5
8A2
330
CA0
100
AcDbEntity
  8
TITLEBLOCK_NOTES
  6
Continuous
 62
     3
100
AcDbLine
 10
25.80379314467255
 20
-10.65206390967657
 30
0.0
 11
26.54997305149391
 21
-10.63903928068579
 31
0.0
  0
LINE
  5
8A3
330
CA0
100
AcDbEntity
  8
TITLEBLOCK_NOTES
  6
Continuous
 62
     3
100
AcDbLine
 10
25.80379314467255
 20
-10.63288808772578
 30
0.0
 11
26.51543417803747
 21
-10.62046635051522
 31
0.0
  0
LINE
  5
8A4
330
CA0
100
AcDbEntity
  8
TITLEBLOCK_NOTES
  6
Continuous
 62
     3
100
AcDbLine
 10
25.80379314467255
 20
-10.61371226577499
 30
0.0
 11
26.48406698124659
 21
-10.60183805860142
 31
0.0
  0
LINE
  5
8A5
330
CA0
100
AcDbEntity
  8
TITLEBLOCK_NOTES
  6
Continuous
 62
     3
100
AcDbLine
 10
25.37240293778603
 20
-8.55518458467232
 30
0.0
 11
25.37240293778603
 21
-10.71213561910473
 31
0.0
  0
LINE
  5
8A6
330
CA0
100
AcDbEntity
  8
TITLEBLOCK_NOTES
  6
Continuous
 62
     3
100
AcDbLine
 10
25.7798270220677
 20
-8.55518458467232
 30
0.0
 11
25.7798270220677
 21
-10.71213561910473
 31
0.0
  0
LINE
  5
8A7
330
CA0
100
AcDbEntity
  8
TITLEBLOCK_NOTES
  6
Continuous
 62
     3
100
AcDbLine
 10
25.80379314467255
 20
-10.73610174170952
 30
0.0
 11
25.80379314467255
 21
-8.531218462067469
 31
0.0
  0
LINE
  5
8A8
330
CA0
100
AcDbEntity
  8
TITLEBLOCK_NOTES
  6
Continuous
 62
     3
100
AcDbLine
 10
25.34843681518123
 20
-8.531218462067469
 30
0.0
 11
25.34843681518123
 21
-10.73610174170952
 31
0.0
  0
LINE
  5
8A9
330
CA0
100
AcDbEntity
  8
TITLEBLOCK_NOTES
  6
Continuous
 62
     3
100
AcDbLine
 10
25.75586089946297
 20
-8.579150707277106
 30
0.0
 11
25.75586089946297
 21
-10.68816949649988
 31
0.0
  0
LINE
  5
8AA
330
CA0
100
AcDbEntity
  8
TITLEBLOCK_NOTES
  6
Continuous
 62
     3
100
AcDbLine
 10
25.39636906039088
 20
-8.579150707277106
 30
0.0
 11
25.39636906039088
 21
-10.68816949649988
 31
0.0
  0
LINE
  5
8AB
330
CA0
100
AcDbEntity
  8
TITLEBLOCK_NOTES
  6
Continuous
 62
     3
100
AcDbLine
 10
25.80379314467255
 20
-10.5945364438242
 30
0.0
 11
26.45529397343093
 21
-10.58316447071595
 31
0.0
  0
LINE
  5
8AC
330
CA0
100
AcDbEntity
  8
TITLEBLOCK_NOTES
  6
Continuous
 62
     3
100
AcDbLine
 10
26.53144546522739
 20
-9.94762733242781
 30
0.0
 11
27.3801783279645
 21
-9.932812673739693
 31
0.0
  0
LINE
  5
8AD
330
CA0
100
AcDbEntity
  8
TITLEBLOCK_NOTES
  6
Continuous
 62
     3
100
AcDbLine
 10
26.52730397544447
 20
-9.928523840235088
 30
0.0
 11
27.38365053980732
 21
-9.913576217498709
 31
0.0
  0
LINE
  5
8AE
330
CA0
100
AcDbEntity
  8
TITLEBLOCK_NOTES
  6
Continuous
 62
     3
100
AcDbLine
 10
26.52404769836618
 20
-9.909404817994799
 30
0.0
 11
27.38623763481034
 21
-9.894355243372904
 31
0.0
  0
LINE
  5
8AF
330
CA0
100
AcDbEntity
  8
TITLEBLOCK_NOTES
  6
Continuous
 62
     3
100
AcDbLine
 10
26.52285686966623
 20
-9.890249798638471
 30
0.0
 11
27.38795744376845
 21
-9.875149415836643
 31
0.0
  0
LINE
  5
8B0
330
CA0
100
AcDbEntity
  8
TITLEBLOCK_NOTES
  6
Continuous
 62
     3
100
AcDbLine
 10
26.52726069262706
 20
-9.348997064306249
 30
0.0
 11
27.38411078522589
 21
-9.334040717901235
 31
0.0
  0
LINE
  5
8B1
330
CA0
100
AcDbEntity
  8
TITLEBLOCK_NOTES
  6
Continuous
 62
     3
100
AcDbLine
 10
26.52741671208528
 20
-9.329818558149703
 30
0.0
 11
27.37966094730964
 21
-9.314942546187651
 31
0.0
  0
LINE
  5
8B2
330
CA0
100
AcDbEntity
  8
TITLEBLOCK_NOTES
  6
Continuous
 62
     3
100
AcDbLine
 10
26.52710462523661
 20
-9.368175618394975
 30
0.0
 11
27.38767704013401
 21
-9.353154275865511
 31
0.0
  0
ARC
  5
8B3
330
CA0
100
AcDbEntity
  8
TITLEBLOCK_NOTES
  6
Continuous
 62
     3
100
AcDbCircle
 10
26.95416702970313
 20
-9.845984993306556
 30
0.0
 40
0.4826927120535149
100
AcDbArc
 50
186.7746279100008
 51
351.0289824700003
  0
ARC
  5
8B4
330
CA0
100
AcDbEntity
  8
TITLEBLOCK_NOTES
  6
Continuous
 62
     3
100
AcDbCircle
 10
26.95416702970313
 20
-9.845984993306556
 30
0.0
 40
0.4587358403720358
100
AcDbArc
 50
187.1485089300005
 51
353.5789239900009
  0
ARC
  5
8B5
330
CA0
100
AcDbEntity
  8
TITLEBLOCK_NOTES
  6
Continuous
 62
     3
100
AcDbCircle
 10
26.95416702970313
 20
-9.845984993306556
 30
0.0
 40
0.4347697177672313
100
AcDbArc
 50
187.1485089300005
 51
356.3951218200006
  0
LINE
  5
8B6
330
CA0
100
AcDbEntity
  8
TITLEBLOCK_NOTES
  6
Continuous
 62
     3
100
AcDbLine
 10
26.52694860577853
 20
-9.387354172483766
 30
0.0
 11
27.51929098079464
 21
-9.37003275323566
 31
0.0
  0
LINE
  5
8B7
330
CA0
100
AcDbEntity
  8
TITLEBLOCK_NOTES
  6
Continuous
 62
     3
100
AcDbLine
 10
26.52301288912445
 20
-9.87107124454968
 30
0.0
 11
28.28439607185661
 21
-9.840326208301597
 31
0.0
  0
LINE
  5
8B8
330
CA0
100
AcDbEntity
  8
TITLEBLOCK_NOTES
  6
Continuous
 62
     3
100
AcDbLine
 10
26.52316895651477
 20
-9.851892738393132
 30
0.0
 11
28.27619237222441
 21
-9.821293607899463
 31
0.0
  0
LINE
  5
8B9
330
CA0
100
AcDbEntity
  8
TITLEBLOCK_NOTES
  6
Continuous
 62
     3
100
AcDbLine
 10
26.52332497597284
 20
-9.832714184304338
 30
0.0
 11
28.26798862466017
 21
-9.802260959565151
 31
0.0
  0
LINE
  5
8BA
330
CA0
100
AcDbEntity
  8
TITLEBLOCK_NOTES
  6
Continuous
 62
     3
100
AcDbLine
 10
26.52348104336335
 20
-9.813535630215614
 30
0.0
 11
28.25978492502798
 21
-9.783228359163016
 31
0.0
  0
LINE
  5
8BB
330
CA0
100
AcDbEntity
  8
TITLEBLOCK_NOTES
  6
Continuous
 62
     3
100
AcDbLine
 10
26.52363706282151
 20
-9.794357076126823
 30
0.0
 11
28.25158122539586
 21
-9.764195710828639
 31
0.0
  0
LINE
  5
8BC
330
CA0
100
AcDbEntity
  8
TITLEBLOCK_NOTES
  6
Continuous
 62
     3
100
AcDbLine
 10
26.52379313021189
 20
-9.775178569970275
 30
0.0
 11
28.24337747783168
 21
-9.745163110426572
 31
0.0
  0
LINE
  5
8BD
330
CA0
100
AcDbEntity
  8
TITLEBLOCK_NOTES
  6
Continuous
 62
     3
100
AcDbLine
 10
26.52394914967004
 20
-9.756000015881486
 30
0.0
 11
28.2351737781995
 21
-9.726130462092195
 31
0.0
  0
LINE
  5
8BE
330
CA0
100
AcDbEntity
  8
TITLEBLOCK_NOTES
  6
Continuous
 62
     3
100
AcDbLine
 10
26.52410521706048
 20
-9.736821461792695
 30
0.0
 11
28.22697007856729
 21
-9.70709786169006
 31
0.0
  0
LINE
  5
8BF
330
CA0
100
AcDbEntity
  8
TITLEBLOCK_NOTES
  6
Continuous
 62
     3
100
AcDbLine
 10
26.5242612365185
 20
-9.717642907703968
 30
0.0
 11
28.21876633100299
 21
-9.688065213355679
 31
0.0
  0
LINE
  5
8C0
330
CA0
100
AcDbEntity
  8
TITLEBLOCK_NOTES
  6
Continuous
 62
     3
100
AcDbLine
 10
26.52441730390895
 20
-9.69846440154742
 30
0.0
 11
28.2105626313708
 21
-9.669032612953614
 31
0.0
  0
LINE
  5
8C1
330
CA0
100
AcDbEntity
  8
TITLEBLOCK_NOTES
  6
Continuous
 62
     3
100
AcDbLine
 10
26.52457332336715
 20
-9.679285847458627
 30
0.0
 11
28.20235893173882
 21
-9.649999964619235
 31
0.0
  0
LINE
  5
8C2
330
CA0
100
AcDbEntity
  8
TITLEBLOCK_NOTES
  6
Continuous
 62
     3
100
AcDbLine
 10
26.52472939075747
 20
-9.660107293369838
 30
0.0
 11
28.11556547492867
 21
-9.63233913714275
 31
0.0
  0
LINE
  5
8C3
330
CA0
100
AcDbEntity
  8
TITLEBLOCK_NOTES
  6
Continuous
 62
     3
100
AcDbLine
 10
26.52495529542927
 20
-9.63233913714275
 30
0.0
 11
28.1947464763513
 21
-9.63233913714275
 31
0.0
  0
LINE
  5
8C4
330
CA0
100
AcDbEntity
  8
TITLEBLOCK_NOTES
  6
Continuous
 62
     3
100
AcDbLine
 10
26.52632443208136
 20
-9.464068340906624
 30
0.0
 11
28.11029853602841
 21
-9.436419967360347
 31
0.0
  0
LINE
  5
8C5
330
CA0
100
AcDbEntity
  8
TITLEBLOCK_NOTES
  6
Continuous
 62
     3
100
AcDbLine
 10
26.52648045153949
 20
-9.444889786817901
 30
0.0
 11
28.10209483639616
 21
-9.417387366958282
 31
0.0
  0
LINE
  5
8C6
330
CA0
100
AcDbEntity
  8
TITLEBLOCK_NOTES
  6
Continuous
 62
     3
100
AcDbLine
 10
26.52663651893
 20
-9.425711232729106
 30
0.0
 11
28.09389113676409
 21
-9.398354718623901
 31
0.0
  0
LINE
  5
8C7
330
CA0
100
AcDbEntity
  8
TITLEBLOCK_NOTES
  6
Continuous
 62
     3
100
AcDbLine
 10
26.52679253838814
 20
-9.406532726572557
 30
0.0
 11
28.08568738919973
 21
-9.379322118221766
 31
0.0
  0
LINE
  5
8C8
330
CA0
100
AcDbEntity
  8
TITLEBLOCK_NOTES
  6
Continuous
 62
     3
100
AcDbLine
 10
26.52585627784235
 20
-9.521603955240751
 30
0.0
 11
28.13490973078908
 21
-9.493517816498927
 31
0.0
  0
LINE
  5
8C9
330
CA0
100
AcDbEntity
  8
TITLEBLOCK_NOTES
  6
Continuous
 62
     3
100
AcDbLine
 10
26.52601234523281
 20
-9.502425449084208
 30
0.0
 11
28.12670598322491
 21
-9.474485216096862
 31
0.0
  0
LINE
  5
8CA
330
CA0
100
AcDbEntity
  8
TITLEBLOCK_NOTES
  6
Continuous
 62
     3
100
AcDbLine
 10
26.52572302620078
 20
-9.537984320718685
 30
0.0
 11
28.1540763018166
 21
-9.537984320718685
 31
0.0
  0
LINE
  5
8CB
330
CA0
100
AcDbEntity
  8
TITLEBLOCK_NOTES
  6
Continuous
 62
     3
100
AcDbLine
 10
26.52616836469095
 20
-9.483246894995414
 30
0.0
 11
28.11850228359272
 21
-9.455452567762481
 31
0.0
  0
ARC
  5
8CC
330
CA0
100
AcDbEntity
  8
TITLEBLOCK_NOTES
  6
Continuous
 62
     3
100
AcDbCircle
 10
26.95416702970313
 20
-9.424149839841366
 30
0.0
 40
0.4632511058030263
100
AcDbArc
 50
9.703799320000287
 51
166.2342647899999
  0
ARC
  5
8CD
330
CA0
100
AcDbEntity
  8
TITLEBLOCK_NOTES
  6
Continuous
 62
     3
100
AcDbCircle
 10
26.95416702970313
 20
-9.424149839841366
 30
0.0
 40
0.4392849831982215
100
AcDbArc
 50
7.076443860000452
 51
166.2342647899999
  0
ARC
  5
8CE
330
CA0
100
AcDbEntity
  8
TITLEBLOCK_NOTES
  6
Continuous
 62
     3
100
AcDbCircle
 10
26.95416702970313
 20
-9.424149839841366
 30
0.0
 40
0.485507245559978
100
AcDbArc
 50
12.13355041999991
 51
170.8448616600001
  0
ARC
  5
8CF
330
CA0
100
AcDbEntity
  8
TITLEBLOCK_NOTES
  6
Continuous
 62
     3
100
AcDbCircle
 10
26.95416702970313
 20
-9.424149839841366
 30
0.0
 40
0.868969952529127
100
AcDbArc
 50
5.155389819999697
 51
173.2499419799998
  0
ARC
  5
8D0
330
CA0
100
AcDbEntity
  8
TITLEBLOCK_NOTES
  6
Continuous
 62
     3
100
AcDbCircle
 10
26.95416702970313
 20
-9.424149839841366
 30
0.0
 40
0.8929360751339313
100
AcDbArc
 50
3.474582380000164
 51
173.2499419799998
  0
ARC
  5
8D1
330
CA0
100
AcDbEntity
  8
TITLEBLOCK_NOTES
  6
Continuous
 62
     3
100
AcDbCircle
 10
26.95416702970313
 20
-9.424149839841366
 30
0.0
 40
0.8449990846320465
100
AcDbArc
 50
6.936458520000424
 51
173.0635414800004
  0
ARC
  5
8D2
330
CA0
100
AcDbEntity
  8
TITLEBLOCK_NOTES
  6
Continuous
 62
     3
100
AcDbCircle
 10
26.95416702970313
 20
-9.845984993306556
 30
0.0
 40
0.8661506737303879
100
AcDbArc
 50
184.987482900001
 51
356.6043585300005
  0
ARC
  5
8D3
330
CA0
100
AcDbEntity
  8
TITLEBLOCK_NOTES
  6
Continuous
 62
     3
100
AcDbCircle
 10
26.95416702970313
 20
-9.845984993306556
 30
0.0
 40
0.8901167963351921
100
AcDbArc
 50
184.987482900001
 51
358.2401137300005
  0
ARC
  5
8D4
330
CA0
100
AcDbEntity
  8
TITLEBLOCK_NOTES
  6
Continuous
 62
     3
100
AcDbCircle
 10
26.95416702970313
 20
-9.845984993306556
 30
0.0
 40
0.8421845511255835
100
AcDbArc
 50
185.1275404200005
 51
354.8724595800011
  0
LINE
  5
8D5
330
CA0
100
AcDbEntity
  8
TITLEBLOCK_NOTES
  6
Continuous
 62
     3
100
AcDbLine
 10
26.54248718516611
 20
-9.985786240771469
 30
0.0
 11
27.37047506804088
 21
-9.971333662263582
 31
0.0
  0
LINE
  5
8D6
330
CA0
100
AcDbEntity
  8
TITLEBLOCK_NOTES
  6
Continuous
 62
     3
100
AcDbLine
 10
26.54945768399345
 20
-10.0048404106839
 30
0.0
 11
27.36417379922125
 21
-9.990619488717165
 31
0.0
  0
LINE
  5
8D7
330
CA0
100
AcDbEntity
  8
TITLEBLOCK_NOTES
  6
Continuous
 62
     3
100
AcDbLine
 10
26.55142271431811
 20
-10.00975840283913
 30
0.0
 11
27.35691129715604
 21
-10.00975840283913
 31
0.0
  0
LINE
  5
8D8
330
CA0
100
AcDbEntity
  8
TITLEBLOCK_NOTES
  6
Continuous
 62
     3
100
AcDbLine
 10
26.53649613383734
 20
-9.966715006979708
 30
0.0
 11
27.37579684142995
 21
-9.952064947621632
 31
0.0
  0
LINE
  5
8D9
330
CA0
100
AcDbEntity
  8
TITLEBLOCK_NOTES
  6
Continuous
 62
     3
100
AcDbLine
 10
26.52488541021562
 20
-9.640928739281047
 30
0.0
 11
27.01698353122095
 21
-9.63233913714275
 31
0.0
  0
LINE
  5
8DA
330
CA0
100
AcDbEntity
  8
TITLEBLOCK_NOTES
  6
Continuous
 62
     3
100
AcDbLine
 10
26.58549995232095
 20
-9.185286062556915
 30
0.0
 11
27.32283405915332
 21
-9.185286062556915
 31
0.0
  0
LINE
  5
8DB
330
CA0
100
AcDbEntity
  8
TITLEBLOCK_NOTES
  6
Continuous
 62
     3
100
AcDbLine
 10
27.37615575808192
 20
-9.302097327590674
 30
0.0
 11
26.53217825339202
 21
-9.302097327590674
 31
0.0
  0
LINE
  5
8DC
330
CA0
100
AcDbEntity
  8
TITLEBLOCK_NOTES
  6
Continuous
 62
     3
100
AcDbLine
 10
26.57188546912046
 20
-9.207742511166614
 30
0.0
 11
27.33644854235361
 21
-9.207742511166614
 31
0.0
  0
LINE
  5
8DD
330
CA0
100
AcDbEntity
  8
TITLEBLOCK_NOTES
  6
Continuous
 62
     3
100
AcDbLine
 10
26.5298110715301
 20
-9.310600939281087
 30
0.0
 11
27.01698353122095
 21
-9.302097327590674
 31
0.0
  0
LINE
  5
8DE
330
CA0
100
AcDbEntity
  8
TITLEBLOCK_NOTES
  6
Continuous
 62
     3
100
AcDbLine
 10
26.60431776833222
 20
-10.10411321926326
 30
0.0
 11
27.30401629107417
 21
-10.10411321926326
 31
0.0
  0
LINE
  5
8DF
330
CA0
100
AcDbEntity
  8
TITLEBLOCK_NOTES
  6
Continuous
 62
     3
100
AcDbLine
 10
26.60218439996225
 20
-9.161319939952059
 30
0.0
 11
27.30614961151163
 21
-9.161319939952059
 31
0.0
  0
LINE
  5
8E0
330
CA0
100
AcDbEntity
  8
TITLEBLOCK_NOTES
  6
Continuous
 62
     3
100
AcDbLine
 10
25.80379314467255
 20
-10.72876719747978
 30
0.0
 11
26.74952903244938
 21
-10.71225928429735
 31
0.0
  0
LINE
  5
8E1
330
CA0
100
AcDbEntity
  8
TITLEBLOCK_NOTES
  6
Continuous
 62
     3
100
AcDbLine
 10
25.80379314467255
 20
-10.70959137552899
 30
0.0
 11
26.6843464515112
 21
-10.69422123005109
 31
0.0
  0
LINE
  5
8E2
330
CA0
100
AcDbEntity
  8
TITLEBLOCK_NOTES
  6
Continuous
 62
     3
100
AcDbLine
 10
25.80379314467255
 20
-10.69041555357814
 30
0.0
 11
26.63250653001098
 21
-10.67595027302533
 31
0.0
  0
LINE
  5
8E3
330
CA0
100
AcDbEntity
  8
TITLEBLOCK_NOTES
  6
Continuous
 62
     3
100
AcDbLine
 10
27.30883233134388
 20
-11.04766133557197
 30
0.0
 11
31.43800208920357
 21
-10.97558643329847
 31
0.0
  0
LINE
  5
8E4
330
CA0
100
AcDbEntity
  8
TITLEBLOCK_NOTES
  6
Continuous
 62
     3
100
AcDbLine
 10
26.21025043556827
 20
-11.04766133557197
 30
0.0
 11
31.43800208920357
 21
-10.95641061134761
 31
0.0
  0
LINE
  5
8E5
330
CA0
100
AcDbEntity
  8
TITLEBLOCK_NOTES
  6
Continuous
 62
     3
100
AcDbLine
 10
24.01308659608499
 20
-11.04766133557197
 30
0.0
 11
31.43800208920357
 21
-10.91805896744604
 31
0.0
  0
LINE
  5
8E6
330
CA0
100
AcDbEntity
  8
TITLEBLOCK_NOTES
  6
Continuous
 62
     3
100
AcDbLine
 10
25.11166853979285
 20
-11.04766133557197
 30
0.0
 11
31.43800208920357
 21
-10.93723478939683
 31
0.0
  0
LINE
  5
8E7
330
CA0
100
AcDbEntity
  8
TITLEBLOCK_NOTES
  6
Continuous
 62
     3
100
AcDbLine
 10
29.50599617082713
 20
-11.04766133557197
 30
0.0
 11
31.43800208920357
 21
-11.01393807720005
 31
0.0
  0
LINE
  5
8E8
330
CA0
100
AcDbEntity
  8
TITLEBLOCK_NOTES
  6
Continuous
 62
     3
100
AcDbLine
 10
28.40741427505161
 20
-11.04766133557197
 30
0.0
 11
31.43800208920357
 21
-10.99476225524926
 31
0.0
  0
LINE
  5
8E9
330
CA0
100
AcDbEntity
  8
TITLEBLOCK_NOTES
  6
Continuous
 62
     3
100
AcDbLine
 10
28.79955847027316
 20
-10.42719026059818
 30
0.0
 11
29.54250827102203
 21
-10.4142219999277
 31
0.0
  0
LINE
  5
8EA
330
CA0
100
AcDbEntity
  8
TITLEBLOCK_NOTES
  6
Continuous
 62
     3
100
AcDbLine
 10
28.79955847027316
 20
-10.40801443864733
 30
0.0
 11
29.54250827102203
 21
-10.39504617797691
 31
0.0
  0
LINE
  5
8EB
330
CA0
100
AcDbEntity
  8
TITLEBLOCK_NOTES
  6
Continuous
 62
     3
100
AcDbLine
 10
28.79955847027316
 20
-10.38883861669654
 30
0.0
 11
29.54250827102203
 21
-10.37587035602612
 31
0.0
  0
LINE
  5
8EC
330
CA0
100
AcDbEntity
  8
TITLEBLOCK_NOTES
  6
Continuous
 62
     3
100
AcDbLine
 10
28.79955847027316
 20
-10.36966279474575
 30
0.0
 11
29.54250827102203
 21
-10.35669458200758
 31
0.0
  0
LINE
  5
8ED
330
CA0
100
AcDbEntity
  8
TITLEBLOCK_NOTES
  6
Continuous
 62
     3
100
AcDbLine
 10
28.79955847027316
 20
-10.35048697279496
 30
0.0
 11
29.54250827102203
 21
-10.33751876005673
 31
0.0
  0
LINE
  5
8EE
330
CA0
100
AcDbEntity
  8
TITLEBLOCK_NOTES
  6
Continuous
 62
     3
100
AcDbLine
 10
28.79955847027316
 20
-10.54224514437072
 30
0.0
 11
29.54250827102203
 21
-10.52927693163255
 31
0.0
  0
LINE
  5
8EF
330
CA0
100
AcDbEntity
  8
TITLEBLOCK_NOTES
  6
Continuous
 62
     3
100
AcDbLine
 10
28.79955847027316
 20
-10.52306937035212
 30
0.0
 11
29.54250827102203
 21
-10.5101011096817
 31
0.0
  0
LINE
  5
8F0
330
CA0
100
AcDbEntity
  8
TITLEBLOCK_NOTES
  6
Continuous
 62
     3
100
AcDbLine
 10
28.79955847027316
 20
-10.50389354840133
 30
0.0
 11
29.54250827102203
 21
-10.49092528773091
 31
0.0
  0
LINE
  5
8F1
330
CA0
100
AcDbEntity
  8
TITLEBLOCK_NOTES
  6
Continuous
 62
     3
100
AcDbLine
 10
28.79955847027316
 20
-10.48471772645054
 30
0.0
 11
29.54250827102203
 21
-10.47174946578013
 31
0.0
  0
LINE
  5
8F2
330
CA0
100
AcDbEntity
  8
TITLEBLOCK_NOTES
  6
Continuous
 62
     3
100
AcDbLine
 10
28.79955847027316
 20
-10.46554190449975
 30
0.0
 11
29.54250827102203
 21
-10.45257364382934
 31
0.0
  0
LINE
  5
8F3
330
CA0
100
AcDbEntity
  8
TITLEBLOCK_NOTES
  6
Continuous
 62
     3
100
AcDbLine
 10
28.79955847027316
 20
-10.44636608254897
 30
0.0
 11
29.54250827102203
 21
-10.43339782187848
 31
0.0
  0
LINE
  5
8F4
330
CA0
100
AcDbEntity
  8
TITLEBLOCK_NOTES
  6
Continuous
 62
     3
100
AcDbLine
 10
28.79955847027316
 20
-10.5805967882723
 30
0.0
 11
29.54250827102203
 21
-10.56762857553413
 31
0.0
  0
LINE
  5
8F5
330
CA0
100
AcDbEntity
  8
TITLEBLOCK_NOTES
  6
Continuous
 62
     3
100
AcDbLine
 10
28.79955847027316
 20
-10.56142096632151
 30
0.0
 11
29.54250827102203
 21
-10.54845275358334
 31
0.0
  0
LINE
  5
8F6
330
CA0
100
AcDbEntity
  8
TITLEBLOCK_NOTES
  6
Continuous
 62
     3
100
AcDbLine
 10
28.79955847027316
 20
-10.33131115084411
 30
0.0
 11
29.54250827102203
 21
-10.31834293810594
 31
0.0
  0
LINE
  5
8F7
330
CA0
100
AcDbEntity
  8
TITLEBLOCK_NOTES
  6
Continuous
 62
     3
100
AcDbLine
 10
28.79955847027316
 20
-10.31213532889333
 30
0.0
 11
29.54250827102203
 21
-10.29916711615515
 31
0.0
  0
LINE
  5
8F8
330
CA0
100
AcDbEntity
  8
TITLEBLOCK_NOTES
  6
Continuous
 62
     3
100
AcDbLine
 10
28.79955847027316
 20
-10.29295950694254
 30
0.0
 11
29.54250827102203
 21
-10.27999129420437
 31
0.0
  0
LINE
  5
8F9
330
CA0
100
AcDbEntity
  8
TITLEBLOCK_NOTES
  6
Continuous
 62
     3
100
AcDbLine
 10
28.79955847027316
 20
-10.27378368499175
 30
0.0
 11
29.54250827102203
 21
-10.26081547225358
 31
0.0
  0
LINE
  5
8FA
330
CA0
100
AcDbEntity
  8
TITLEBLOCK_NOTES
  6
Continuous
 62
     3
100
AcDbLine
 10
28.79955847027316
 20
-10.25460786304096
 30
0.0
 11
29.54250827102203
 21
-10.24163965030273
 31
0.0
  0
LINE
  5
8FB
330
CA0
100
AcDbEntity
  8
TITLEBLOCK_NOTES
  6
Continuous
 62
     3
100
AcDbLine
 10
28.79955847027316
 20
-10.23543208902242
 30
0.0
 11
29.54250827102203
 21
-10.22246382835194
 31
0.0
  0
LINE
  5
8FC
330
CA0
100
AcDbEntity
  8
TITLEBLOCK_NOTES
  6
Continuous
 62
     3
100
AcDbLine
 10
28.79955847027316
 20
-10.21625626707157
 30
0.0
 11
29.54250827102203
 21
-10.20328800640115
 31
0.0
  0
LINE
  5
8FD
330
CA0
100
AcDbEntity
  8
TITLEBLOCK_NOTES
  6
Continuous
 62
     3
100
AcDbLine
 10
28.79955847027316
 20
-10.19708044512078
 30
0.0
 11
29.54250827102203
 21
-10.18411218445036
 31
0.0
  0
LINE
  5
8FE
330
CA0
100
AcDbEntity
  8
TITLEBLOCK_NOTES
  6
Continuous
 62
     3
100
AcDbLine
 10
28.79955847027316
 20
-10.17790462316999
 30
0.0
 11
29.54250827102203
 21
-10.16493636249951
 31
0.0
  0
LINE
  5
8FF
330
CA0
100
AcDbEntity
  8
TITLEBLOCK_NOTES
  6
Continuous
 62
     3
100
AcDbLine
 10
28.79955847027316
 20
-10.00391637286074
 30
0.0
 11
29.54250827102203
 21
-9.990948160122572
 31
0.0
  0
LINE
  5
900
330
CA0
100
AcDbEntity
  8
TITLEBLOCK_NOTES
  6
Continuous
 62
     3
100
AcDbLine
 10
28.79955847027316
 20
-9.984740550909952
 30
0.0
 11
29.54250827102203
 21
-9.971772338171783
 31
0.0
  0
LINE
  5
901
330
CA0
100
AcDbEntity
  8
TITLEBLOCK_NOTES
  6
Continuous
 62
     3
100
AcDbLine
 10
28.80542652746067
 20
-9.965462297751136
 30
0.0
 11
29.54250827102203
 21
-9.952596516220928
 31
0.0
  0
LINE
  5
902
330
CA0
100
AcDbEntity
  8
TITLEBLOCK_NOTES
  6
Continuous
 62
     3
100
AcDbLine
 10
28.81375461126902
 20
-9.946141145232871
 30
0.0
 11
29.54250827102203
 21
-9.933420694270143
 31
0.0
  0
LINE
  5
903
330
CA0
100
AcDbEntity
  8
TITLEBLOCK_NOTES
  6
Continuous
 62
     3
100
AcDbLine
 10
28.8220826950775
 20
-9.926819944782364
 30
0.0
 11
29.54250827102203
 21
-9.914244872319356
 31
0.0
  0
LINE
  5
904
330
CA0
100
AcDbEntity
  8
TITLEBLOCK_NOTES
  6
Continuous
 62
     3
100
AcDbLine
 10
28.83041082681821
 20
-9.907498744331853
 30
0.0
 11
29.54250827102203
 21
-9.895069050368567
 31
0.0
  0
LINE
  5
905
330
CA0
100
AcDbEntity
  8
TITLEBLOCK_NOTES
  6
Continuous
 62
     3
100
AcDbLine
 10
28.83873891062663
 20
-9.888177591813587
 30
0.0
 11
29.54250827102203
 21
-9.875893228417782
 31
0.0
  0
LINE
  5
906
330
CA0
100
AcDbEntity
  8
TITLEBLOCK_NOTES
  6
Continuous
 62
     3
100
AcDbLine
 10
28.8470669944351
 20
-9.868856391363008
 30
0.0
 11
29.54250827102203
 21
-9.856717406466927
 31
0.0
  0
LINE
  5
907
330
CA0
100
AcDbEntity
  8
TITLEBLOCK_NOTES
  6
Continuous
 62
     3
100
AcDbLine
 10
28.85539512617583
 20
-9.849535190912499
 30
0.0
 11
29.54250827102203
 21
-9.83754158451614
 31
0.0
  0
LINE
  5
908
330
CA0
100
AcDbEntity
  8
TITLEBLOCK_NOTES
  6
Continuous
 62
     3
100
AcDbLine
 10
28.86372320998417
 20
-9.830214038394231
 30
0.0
 11
29.54250827102203
 21
-9.818365762565351
 31
0.0
  0
LINE
  5
909
330
CA0
100
AcDbEntity
  8
TITLEBLOCK_NOTES
  6
Continuous
 62
     3
100
AcDbLine
 10
28.87205129379259
 20
-9.810892837943722
 30
0.0
 11
29.54250827102203
 21
-9.799189940614562
 31
0.0
  0
LINE
  5
90A
330
CA0
100
AcDbEntity
  8
TITLEBLOCK_NOTES
  6
Continuous
 62
     3
100
AcDbLine
 10
28.88037937760105
 20
-9.791571637493207
 30
0.0
 11
29.54250827102203
 21
-9.780014118663778
 31
0.0
  0
LINE
  5
90B
330
CA0
100
AcDbEntity
  8
TITLEBLOCK_NOTES
  6
Continuous
 62
     3
100
AcDbLine
 10
28.88870750934163
 20
-9.772250437042696
 30
0.0
 11
29.54250827102203
 21
-9.76083834464517
 31
0.0
  0
LINE
  5
90C
330
CA0
100
AcDbEntity
  8
TITLEBLOCK_NOTES
  6
Continuous
 62
     3
100
AcDbLine
 10
28.89703559315027
 20
-9.752929284524368
 30
0.0
 11
29.54250827102203
 21
-9.741662522694383
 31
0.0
  0
LINE
  5
90D
330
CA0
100
AcDbEntity
  8
TITLEBLOCK_NOTES
  6
Continuous
 62
     3
100
AcDbLine
 10
28.9053636769586
 20
-9.733608084073855
 30
0.0
 11
29.54250827102203
 21
-9.722486700743598
 31
0.0
  0
LINE
  5
90E
330
CA0
100
AcDbEntity
  8
TITLEBLOCK_NOTES
  6
Continuous
 62
     3
100
AcDbLine
 10
28.91369180869926
 20
-9.714286883623344
 30
0.0
 11
29.54250827102203
 21
-9.703310878792807
 31
0.0
  0
LINE
  5
90F
330
CA0
100
AcDbEntity
  8
TITLEBLOCK_NOTES
  6
Continuous
 62
     3
100
AcDbLine
 10
28.79955847027316
 20
-10.15872880121914
 30
0.0
 11
29.54250827102203
 21
-10.14576054054873
 31
0.0
  0
LINE
  5
910
330
CA0
100
AcDbEntity
  8
TITLEBLOCK_NOTES
  6
Continuous
 62
     3
100
AcDbLine
 10
28.79955847027316
 20
-10.13955297926836
 30
0.0
 11
29.54250827102203
 21
-10.12658471859794
 31
0.0
  0
LINE
  5
911
330
CA0
100
AcDbEntity
  8
TITLEBLOCK_NOTES
  6
Continuous
 62
     3
100
AcDbLine
 10
28.79955847027316
 20
-10.12037715731757
 30
0.0
 11
29.54250827102203
 21
-10.10740889664715
 31
0.0
  0
LINE
  5
912
330
CA0
100
AcDbEntity
  8
TITLEBLOCK_NOTES
  6
Continuous
 62
     3
100
AcDbLine
 10
28.79955847027316
 20
-10.00975840283913
 30
0.0
 11
29.54250827102203
 21
-10.00975840283913
 31
0.0
  0
LINE
  5
913
330
CA0
100
AcDbEntity
  8
TITLEBLOCK_NOTES
  6
Continuous
 62
     3
100
AcDbLine
 10
28.79955847027316
 20
-10.10411321926326
 30
0.0
 11
29.54250827102203
 21
-10.10411321926326
 31
0.0
  0
LINE
  5
914
330
CA0
100
AcDbEntity
  8
TITLEBLOCK_NOTES
  6
Continuous
 62
     3
100
AcDbLine
 10
28.92201989250773
 20
-9.694965731105082
 30
0.0
 11
29.54250827102203
 21
-9.684135056842022
 31
0.0
  0
LINE
  5
915
330
CA0
100
AcDbEntity
  8
TITLEBLOCK_NOTES
  6
Continuous
 62
     3
100
AcDbLine
 10
28.93034797631621
 20
-9.675644530654572
 30
0.0
 11
29.54250827102203
 21
-9.664959234891167
 31
0.0
  0
LINE
  5
916
330
CA0
100
AcDbEntity
  8
TITLEBLOCK_NOTES
  6
Continuous
 62
     3
100
AcDbLine
 10
28.93867606012448
 20
-9.656323330203994
 30
0.0
 11
29.54250827102203
 21
-9.645783412940382
 31
0.0
  0
LINE
  5
917
330
CA0
100
AcDbEntity
  8
TITLEBLOCK_NOTES
  6
Continuous
 62
     3
100
AcDbLine
 10
28.94901408677128
 20
-9.63233913714275
 30
0.0
 11
29.54250827102203
 21
-9.63233913714275
 31
0.0
  0
LINE
  5
918
330
CA0
100
AcDbEntity
  8
TITLEBLOCK_NOTES
  6
Continuous
 62
     3
100
AcDbLine
 10
29.01547602726638
 20
-9.478147479292047
 30
0.0
 11
29.54250827102203
 21
-9.468948131062429
 31
0.0
  0
LINE
  5
919
330
CA0
100
AcDbEntity
  8
TITLEBLOCK_NOTES
  6
Continuous
 62
     3
100
AcDbLine
 10
29.54250827102203
 20
-9.137353817347271
 30
0.0
 11
29.16236985698718
 21
-9.137353817347271
 31
0.0
  0
LINE
  5
91A
330
CA0
100
AcDbEntity
  8
TITLEBLOCK_NOTES
  6
Continuous
 62
     3
100
AcDbLine
 10
29.54250827102203
 20
-9.113387694742483
 30
0.0
 11
29.17270007067798
 21
-9.113387694742483
 31
0.0
  0
LINE
  5
91B
330
CA0
100
AcDbEntity
  8
TITLEBLOCK_NOTES
  6
Continuous
 62
     3
100
AcDbLine
 10
29.02380411107479
 20
-9.458826326773779
 30
0.0
 11
29.54250827102203
 21
-9.449772309111644
 31
0.0
  0
LINE
  5
91C
330
CA0
100
AcDbEntity
  8
TITLEBLOCK_NOTES
  6
Continuous
 62
     3
100
AcDbLine
 10
29.03213219488334
 20
-9.439505126323266
 30
0.0
 11
29.54250827102203
 21
-9.430596487160855
 31
0.0
  0
LINE
  5
91D
330
CA0
100
AcDbEntity
  8
TITLEBLOCK_NOTES
  6
Continuous
 62
     3
100
AcDbLine
 10
29.04046032662392
 20
-9.420183925872754
 30
0.0
 11
29.54250827102203
 21
-9.411420665210068
 31
0.0
  0
LINE
  5
91E
330
CA0
100
AcDbEntity
  8
TITLEBLOCK_NOTES
  6
Continuous
 62
     3
100
AcDbLine
 10
29.0487884104324
 20
-9.400862773354493
 30
0.0
 11
29.54250827102203
 21
-9.39224484325928
 31
0.0
  0
LINE
  5
91F
330
CA0
100
AcDbEntity
  8
TITLEBLOCK_NOTES
  6
Continuous
 62
     3
100
AcDbLine
 10
29.05711649424081
 20
-9.381541572903982
 30
0.0
 11
29.54250827102203
 21
-9.373069021308428
 31
0.0
  0
LINE
  5
920
330
CA0
100
AcDbEntity
  8
TITLEBLOCK_NOTES
  6
Continuous
 62
     3
100
AcDbLine
 10
29.06544457804929
 20
-9.362220372453469
 30
0.0
 11
29.54250827102203
 21
-9.35389319935764
 31
0.0
  0
LINE
  5
921
330
CA0
100
AcDbEntity
  8
TITLEBLOCK_NOTES
  6
Continuous
 62
     3
100
AcDbLine
 10
29.07377270978981
 20
-9.342899172002894
 30
0.0
 11
29.54250827102203
 21
-9.334717377406851
 31
0.0
  0
LINE
  5
922
330
CA0
100
AcDbEntity
  8
TITLEBLOCK_NOTES
  6
Continuous
 62
     3
100
AcDbLine
 10
29.54250827102203
 20
-9.161319939952059
 30
0.0
 11
29.15203959536414
 21
-9.161319939952059
 31
0.0
  0
LINE
  5
923
330
CA0
100
AcDbEntity
  8
TITLEBLOCK_NOTES
  6
Continuous
 62
     3
100
AcDbLine
 10
29.54250827102203
 20
-9.183776388561758
 30
0.0
 11
29.14236010983414
 21
-9.183776388561758
 31
0.0
  0
LINE
  5
924
330
CA0
100
AcDbEntity
  8
TITLEBLOCK_NOTES
  6
Continuous
 62
     3
100
AcDbLine
 10
29.08210079359821
 20
-9.323578019484626
 30
0.0
 11
29.54250827102203
 21
-9.315541555456064
 31
0.0
  0
LINE
  5
925
330
CA0
100
AcDbEntity
  8
TITLEBLOCK_NOTES
  6
Continuous
 62
     3
100
AcDbLine
 10
29.13202989614335
 20
-9.207742511166614
 30
0.0
 11
29.54250827102203
 21
-9.207742511166614
 31
0.0
  0
LINE
  5
926
330
CA0
100
AcDbEntity
  8
TITLEBLOCK_NOTES
  6
Continuous
 62
     3
100
AcDbLine
 10
29.0913597216088
 20
-9.302097327590674
 30
0.0
 11
29.54250827102203
 21
-9.302097327590674
 31
0.0
  0
LINE
  5
927
330
CA0
100
AcDbEntity
  8
TITLEBLOCK_NOTES
  6
Continuous
 62
     3
100
AcDbLine
 10
28.99049172790883
 20
-9.536111032711398
 30
0.0
 11
29.54250827102203
 21
-9.526475548982611
 31
0.0
  0
LINE
  5
928
330
CA0
100
AcDbEntity
  8
TITLEBLOCK_NOTES
  6
Continuous
 62
     3
100
AcDbLine
 10
28.98968426130603
 20
-9.537984320718685
 30
0.0
 11
29.54250827102203
 21
-9.537984320718685
 31
0.0
  0
LINE
  5
929
330
CA0
100
AcDbEntity
  8
TITLEBLOCK_NOTES
  6
Continuous
 62
     3
100
AcDbLine
 10
28.99881981171727
 20
-9.516789880193133
 30
0.0
 11
29.54250827102203
 21
-9.507299727031824
 31
0.0
  0
LINE
  5
92A
330
CA0
100
AcDbEntity
  8
TITLEBLOCK_NOTES
  6
Continuous
 62
     3
100
AcDbLine
 10
29.00714789552559
 20
-9.497468679742622
 30
0.0
 11
29.54250827102203
 21
-9.48812395301328
 31
0.0
  0
LINE
  5
92B
330
CA0
100
AcDbEntity
  8
TITLEBLOCK_NOTES
  6
Continuous
 62
     3
100
AcDbLine
 10
29.54250827102203
 20
-8.806357122865373
 30
0.0
 11
29.30504080797282
 21
-8.806357122865373
 31
0.0
  0
LINE
  5
92C
330
CA0
100
AcDbEntity
  8
TITLEBLOCK_NOTES
  6
Continuous
 62
     3
100
AcDbLine
 10
29.54250827102203
 20
-8.78239100026059
 30
0.0
 11
29.3153710695958
 21
-8.78239100026059
 31
0.0
  0
LINE
  5
92D
330
CA0
100
AcDbEntity
  8
TITLEBLOCK_NOTES
  6
Continuous
 62
     3
100
AcDbLine
 10
29.54250827102203
 20
-8.758424877655734
 30
0.0
 11
29.32570128328666
 21
-8.758424877655734
 31
0.0
  0
LINE
  5
92E
330
CA0
100
AcDbEntity
  8
TITLEBLOCK_NOTES
  6
Continuous
 62
     3
100
AcDbLine
 10
29.29471059428197
 20
-8.83032324547023
 30
0.0
 11
29.54250827102203
 21
-8.83032324547023
 31
0.0
  0
LINE
  5
92F
330
CA0
100
AcDbEntity
  8
TITLEBLOCK_NOTES
  6
Continuous
 62
     3
100
AcDbLine
 10
28.79955847027316
 20
-10.73400336387873
 30
0.0
 11
29.54250827102203
 21
-10.72103510320831
 31
0.0
  0
LINE
  5
930
330
CA0
100
AcDbEntity
  8
TITLEBLOCK_NOTES
  6
Continuous
 62
     3
100
AcDbLine
 10
28.79955847027316
 20
-10.71482754192794
 30
0.0
 11
29.54250827102203
 21
-10.70185928125752
 31
0.0
  0
LINE
  5
931
330
CA0
100
AcDbEntity
  8
TITLEBLOCK_NOTES
  6
Continuous
 62
     3
100
AcDbLine
 10
28.79955847027316
 20
-10.69565171997715
 30
0.0
 11
29.54250827102203
 21
-10.68268345930667
 31
0.0
  0
LINE
  5
932
330
CA0
100
AcDbEntity
  8
TITLEBLOCK_NOTES
  6
Continuous
 62
     3
100
AcDbLine
 10
28.79955847027316
 20
-10.6764758980263
 30
0.0
 11
29.54250827102203
 21
-10.66350763735588
 31
0.0
  0
LINE
  5
933
330
CA0
100
AcDbEntity
  8
TITLEBLOCK_NOTES
  6
Continuous
 62
     3
100
AcDbLine
 10
28.79955847027316
 20
-10.65730007607551
 30
0.0
 11
29.54250827102203
 21
-10.64433186333734
 31
0.0
  0
LINE
  5
934
330
CA0
100
AcDbEntity
  8
TITLEBLOCK_NOTES
  6
Continuous
 62
     3
100
AcDbLine
 10
28.79955847027316
 20
-10.63812425412472
 30
0.0
 11
29.54250827102203
 21
-10.62515604138655
 31
0.0
  0
LINE
  5
935
330
CA0
100
AcDbEntity
  8
TITLEBLOCK_NOTES
  6
Continuous
 62
     3
100
AcDbLine
 10
28.79955847027316
 20
-10.61894843217394
 30
0.0
 11
29.54250827102203
 21
-10.6059802194357
 31
0.0
  0
LINE
  5
936
330
CA0
100
AcDbEntity
  8
TITLEBLOCK_NOTES
  6
Continuous
 62
     3
100
AcDbLine
 10
28.79955847027316
 20
-10.59977261022315
 30
0.0
 11
29.54250827102203
 21
-10.58680439748491
 31
0.0
  0
TEXT
  5
937
330
CA0
100
AcDbEntity
  8
TITLEBLOCK_NOTES
  6
Continuous
 62
     3
100
AcDbText
 10
28.62439798112085
 20
-6.542109422034076
 30
0.0
 40
0.455356329491287
  1
XXXX
 41
1.129816719999999
100
AcDbText
  0
TEXT
  5
938
330
CA0
100
AcDbEntity
  8
TITLEBLOCK_NOTES
  6
Continuous
 62
     3
100
AcDbText
 10
28.34957411902491
 20
-5.395153475022278
 30
0.0
 40
0.455356329491287
  1
REVISION
 41
1.129816719999999
100
AcDbText
  0
TEXT
  5
939
330
CA0
100
AcDbEntity
  8
TITLEBLOCK_NOTES
  6
Continuous
 62
     3
100
AcDbText
 10
26.50925839583575
 20
-11.8528502460129
 30
0.0
 40
0.335525716467264
  1
 of
 41
0.8
 51
11.0
100
AcDbText
  0
TEXT
  5
93A
330
CA0
100
AcDbEntity
  8
TITLEBLOCK_NOTES
  6
Continuous
 62
     3
100
AcDbText
 10
25.06470155413727
 20
-11.8528502460129
 30
0.0
 40
0.335525716467264
  1
 POWER
 41
0.8
 51
11.0
100
AcDbText
  0
TEXT
  5
93B
330
CA0
100
AcDbEntity
  8
TITLEBLOCK_NOTES
  6
Continuous
 62
     3
100
AcDbText
 10
27.26260239982277
 20
-11.8528502460129
 30
0.0
 40
0.335525716467264
  1
 HYDRAULICS
 41
0.8
 51
11.0
100
AcDbText
  0
LINE
  5
93C
330
CA0
100
AcDbEntity
  8
TITLEBLOCK_NOTES
  6
Continuous
 62
     3
100
AcDbLine
 10
31.43800208920357
 20
-7.084759189556687
 30
0.0
 11
31.43800208920357
 21
-12.47713677563766
 31
0.0
  0
TEXT
  5
93D
330
CA0
100
AcDbEntity
  8
TITLEBLOCK_NOTES
  6
Continuous
 62
     3
100
AcDbText
 10
22.09789401515759
 20
-5.505409876220993
 30
0.0
 40
0.5991530651201146
  1
/:/
 41
1.02564103
100
AcDbText
  0
TEXT
  5
93E
330
CA0
100
AcDbEntity
  8
TITLEBLOCK_NOTES
  6
Continuous
 62
     3
100
AcDbText
 10
18.48080096949682
 20
-6.7851826569966
 30
0.0
 40
0.455356329491287
  1
DATE
 41
1.028242899999999
100
AcDbText
  0
TEXT
  5
93F
330
CA0
100
AcDbEntity
  8
TITLEBLOCK_NOTES
  6
Continuous
 62
     3
100
AcDbText
 10
20.67187161403685
 20
-6.780342219214088
 30
0.0
 40
0.4313902068864824
  1
05/25/04
 41
0.8
100
AcDbText
  0
TEXT
  5
940
330
CA0
100
AcDbEntity
  8
TITLEBLOCK_NOTES
  6
Continuous
 62
     3
100
AcDbText
 10
18.47398960572352
 20
-5.514978158941953
 30
0.0
 40
0.455356329491287
  1
SCALE
 41
1.070872639999999
100
AcDbText
  0
LINE
  5
941
330
CA0
100
AcDbEntity
  8
TITLEBLOCK_NOTES
  6
Continuous
 62
     3
100
AcDbLine
 10
22.01714577311345
 20
-8.55518458467232
 30
0.0
 11
22.42456985739507
 21
-8.55518458467232
 31
0.0
  0
LINE
  5
942
330
CA0
100
AcDbEntity
  8
TITLEBLOCK_NOTES
  6
Continuous
 62
     3
100
AcDbLine
 10
22.44853597999993
 20
-8.531218462067469
 30
0.0
 11
21.99317965050861
 21
-8.531218462067469
 31
0.0
  0
LINE
  5
943
330
CA0
100
AcDbEntity
  8
TITLEBLOCK_NOTES
  6
Continuous
 62
     3
100
AcDbLine
 10
22.40060373479021
 20
-8.579150707277106
 30
0.0
 11
22.04111189571819
 21
-8.579150707277106
 31
0.0
  0
LINE
  5
944
330
CA0
100
AcDbEntity
  8
TITLEBLOCK_NOTES
  6
Continuous
 62
     3
100
AcDbLine
 10
21.94763376005902
 20
-10.71937338813137
 30
0.0
 11
22.64026496083836
 21
-10.70728348585436
 31
0.0
  0
LINE
  5
945
330
CA0
100
AcDbEntity
  8
TITLEBLOCK_NOTES
  6
Continuous
 62
     3
100
AcDbLine
 10
22.01747295861929
 20
-10.69897855332039
 30
0.0
 11
22.64026496083836
 21
-10.68810766390357
 31
0.0
  0
LINE
  5
946
330
CA0
100
AcDbEntity
  8
TITLEBLOCK_NOTES
  6
Continuous
 62
     3
100
AcDbLine
 10
22.06738216928247
 20
-10.67893156281289
 30
0.0
 11
22.64026496083836
 21
-10.66893184195278
 31
0.0
  0
LINE
  5
947
330
CA0
100
AcDbEntity
  8
TITLEBLOCK_NOTES
  6
Continuous
 62
     3
100
AcDbLine
 10
22.10768350519018
 20
-10.65905228723139
 30
0.0
 11
22.64026496083836
 21
-10.64975602000193
 31
0.0
  0
ARC
  5
948
330
CA0
100
AcDbEntity
  8
TITLEBLOCK_NOTES
  6
Continuous
 62
     3
100
AcDbCircle
 10
21.80145066967023
 20
-10.08901643137977
 30
0.0
 40
0.623119187724919
100
AcDbArc
 50
270.0
 51
0.0000000000008142
  0
ARC
  5
949
330
CA0
100
AcDbEntity
  8
TITLEBLOCK_NOTES
  6
Continuous
 62
     3
100
AcDbCircle
 10
21.80145066967023
 20
-10.08901643137977
 30
0.0
 40
0.5991530651201146
100
AcDbArc
 50
270.0
 51
0.0000000000008142
  0
ARC
  5
94A
330
CA0
100
AcDbEntity
  8
TITLEBLOCK_NOTES
  6
Continuous
 62
     3
100
AcDbCircle
 10
21.80145066967023
 20
-10.08901643137977
 30
0.0
 40
0.6470853103297239
100
AcDbArc
 50
270.0
 51
0.0000000000008142
  0
LINE
  5
94B
330
CA0
100
AcDbEntity
  8
TITLEBLOCK_NOTES
  6
Continuous
 62
     3
100
AcDbLine
 10
20.96263637850204
 20
-8.579150707277106
 30
0.0
 11
21.32212821757413
 21
-8.579150707277106
 31
0.0
  0
LINE
  5
94C
330
CA0
100
AcDbEntity
  8
TITLEBLOCK_NOTES
  6
Continuous
 62
     3
100
AcDbLine
 10
20.93867025589725
 20
-8.55518458467232
 30
0.0
 11
21.34609434017885
 21
-8.55518458467232
 31
0.0
  0
LINE
  5
94D
330
CA0
100
AcDbEntity
  8
TITLEBLOCK_NOTES
  6
Continuous
 62
     3
100
AcDbLine
 10
20.91470413329233
 20
-8.531218462067469
 30
0.0
 11
21.3700604627837
 21
-8.531218462067469
 31
0.0
  0
LINE
  5
94E
330
CA0
100
AcDbEntity
  8
TITLEBLOCK_NOTES
  6
Continuous
 62
     3
100
AcDbLine
 10
21.99317965050861
 20
-8.806357122865373
 30
0.0
 11
21.3700604627837
 21
-8.806357122865373
 31
0.0
  0
LINE
  5
94F
330
CA0
100
AcDbEntity
  8
TITLEBLOCK_NOTES
  6
Continuous
 62
     3
100
AcDbLine
 10
21.99317965050861
 20
-8.78239100026059
 30
0.0
 11
21.3700604627837
 21
-8.78239100026059
 31
0.0
  0
LINE
  5
950
330
CA0
100
AcDbEntity
  8
TITLEBLOCK_NOTES
  6
Continuous
 62
     3
100
AcDbLine
 10
21.99317965050861
 20
-8.758424877655734
 30
0.0
 11
21.3700604627837
 21
-8.758424877655734
 31
0.0
  0
LINE
  5
951
330
CA0
100
AcDbEntity
  8
TITLEBLOCK_NOTES
  6
Continuous
 62
     3
100
AcDbLine
 10
21.99317965050861
 20
-8.83032324547023
 30
0.0
 11
21.3700604627837
 21
-8.83032324547023
 31
0.0
  0
ARC
  5
952
330
CA0
100
AcDbEntity
  8
TITLEBLOCK_NOTES
  6
Continuous
 62
     3
100
AcDbCircle
 10
21.80145066967023
 20
-10.08901643137977
 30
0.0
 40
0.2156951034432412
100
AcDbArc
 50
270.0
 51
359.9999953200008
  0
ARC
  5
953
330
CA0
100
AcDbEntity
  8
TITLEBLOCK_NOTES
  6
Continuous
 62
     3
100
AcDbCircle
 10
21.80145066967023
 20
-10.08901643137977
 30
0.0
 40
0.2396612260480459
100
AcDbArc
 50
270.0
 51
359.9999953200008
  0
ARC
  5
954
330
CA0
100
AcDbEntity
  8
TITLEBLOCK_NOTES
  6
Continuous
 62
     3
100
AcDbCircle
 10
21.80145066967023
 20
-10.08901643137977
 30
0.0
 40
0.1917289808384366
100
AcDbArc
 50
270.0
 51
0.0000000000008142
  0
LINE
  5
955
330
CA0
100
AcDbEntity
  8
TITLEBLOCK_NOTES
  6
Continuous
 62
     3
100
AcDbLine
 10
21.56178934775772
 20
-10.30471153482307
 30
0.0
 11
21.80145066967023
 21
-10.30471153482307
 31
0.0
  0
LINE
  5
956
330
CA0
100
AcDbEntity
  8
TITLEBLOCK_NOTES
  6
Continuous
 62
     3
100
AcDbLine
 10
21.80145066967023
 20
-10.28074541221821
 30
0.0
 11
21.56178939568972
 21
-10.28074541221821
 31
0.0
  0
LINE
  5
957
330
CA0
100
AcDbEntity
  8
TITLEBLOCK_NOTES
  6
Continuous
 62
     3
100
AcDbLine
 10
21.56178934775772
 20
-10.32867765742786
 30
0.0
 11
21.80145066967023
 21
-10.32867765742786
 31
0.0
  0
LINE
  5
958
330
CA0
100
AcDbEntity
  8
TITLEBLOCK_NOTES
  6
Continuous
 62
     3
100
AcDbLine
 10
21.87337770096723
 20
-10.00975840283913
 30
0.0
 11
21.99317965050861
 21
-10.00766726277739
 31
0.0
  0
LINE
  5
959
330
CA0
100
AcDbEntity
  8
TITLEBLOCK_NOTES
  6
Continuous
 62
     3
100
AcDbLine
 10
20.77479580519161
 20
-10.00975840283913
 30
0.0
 11
20.91470413329233
 21
-10.00731630287795
 31
0.0
  0
LINE
  5
95A
330
CA0
100
AcDbEntity
  8
TITLEBLOCK_NOTES
  6
Continuous
 62
     3
100
AcDbLine
 10
21.38425032465546
 20
-10.16140337256962
 30
0.0
 11
21.98289966981068
 21
-10.15095390345271
 31
0.0
  0
LINE
  5
95B
330
CA0
100
AcDbEntity
  8
TITLEBLOCK_NOTES
  6
Continuous
 62
     3
100
AcDbLine
 10
21.37762575284182
 20
-10.14234321112654
 30
0.0
 11
21.9883720463142
 21
-10.13168260046949
 31
0.0
  0
LINE
  5
95C
330
CA0
100
AcDbEntity
  8
TITLEBLOCK_NOTES
  6
Continuous
 62
     3
100
AcDbLine
 10
21.37314063679307
 20
-10.12324566253215
 30
0.0
 11
21.99174245006824
 21
-10.11244791772148
 31
0.0
  0
LINE
  5
95D
330
CA0
100
AcDbEntity
  8
TITLEBLOCK_NOTES
  6
Continuous
 62
     3
100
AcDbLine
 10
21.3700604627837
 20
-9.999368034180589
 30
0.0
 11
21.99317965050861
 21
-9.988491440826605
 31
0.0
  0
LINE
  5
95E
330
CA0
100
AcDbEntity
  8
TITLEBLOCK_NOTES
  6
Continuous
 62
     3
100
AcDbLine
 10
21.3700604627837
 20
-9.980192212229736
 30
0.0
 11
21.99317965050861
 21
-9.969315618875818
 31
0.0
  0
LINE
  5
95F
330
CA0
100
AcDbEntity
  8
TITLEBLOCK_NOTES
  6
Continuous
 62
     3
100
AcDbLine
 10
21.3700604627837
 20
-9.961016390279011
 30
0.0
 11
21.99317965050861
 21
-9.950139796924963
 31
0.0
  0
LINE
  5
960
330
CA0
100
AcDbEntity
  8
TITLEBLOCK_NOTES
  6
Continuous
 62
     3
100
AcDbLine
 10
21.3700604627837
 20
-9.941840568328162
 30
0.0
 11
21.99317965050861
 21
-9.930963974974179
 31
0.0
  0
LINE
  5
961
330
CA0
100
AcDbEntity
  8
TITLEBLOCK_NOTES
  6
Continuous
 62
     3
100
AcDbLine
 10
21.3700604627837
 20
-9.922664746377375
 30
0.0
 11
21.99317965050861
 21
-9.911788153023392
 31
0.0
  0
LINE
  5
962
330
CA0
100
AcDbEntity
  8
TITLEBLOCK_NOTES
  6
Continuous
 62
     3
100
AcDbLine
 10
21.3700604627837
 20
-9.903488924426588
 30
0.0
 11
21.99317965050861
 21
-9.892612331072605
 31
0.0
  0
LINE
  5
963
330
CA0
100
AcDbEntity
  8
TITLEBLOCK_NOTES
  6
Continuous
 62
     3
100
AcDbLine
 10
21.3700604627837
 20
-9.8843131024758
 30
0.0
 11
21.99317965050861
 21
-9.873436509121814
 31
0.0
  0
LINE
  5
964
330
CA0
100
AcDbEntity
  8
TITLEBLOCK_NOTES
  6
Continuous
 62
     3
100
AcDbLine
 10
21.3700604627837
 20
-9.865137280524946
 30
0.0
 11
21.99317965050861
 21
-9.854260687170963
 31
0.0
  0
LINE
  5
965
330
CA0
100
AcDbEntity
  8
TITLEBLOCK_NOTES
  6
Continuous
 62
     3
100
AcDbLine
 10
21.3700604627837
 20
-9.84596145857416
 30
0.0
 11
21.99317965050861
 21
-9.835084865220176
 31
0.0
  0
LINE
  5
966
330
CA0
100
AcDbEntity
  8
TITLEBLOCK_NOTES
  6
Continuous
 62
     3
100
AcDbLine
 10
21.3700604627837
 20
-9.82678563662337
 30
0.0
 11
21.99317965050861
 21
-9.815909091201632
 31
0.0
  0
LINE
  5
967
330
CA0
100
AcDbEntity
  8
TITLEBLOCK_NOTES
  6
Continuous
 62
     3
100
AcDbLine
 10
21.3700604627837
 20
-9.807609814672584
 30
0.0
 11
21.99317965050861
 21
-9.796733269250848
 31
0.0
  0
LINE
  5
968
330
CA0
100
AcDbEntity
  8
TITLEBLOCK_NOTES
  6
Continuous
 62
     3
100
AcDbLine
 10
21.3700604627837
 20
-9.788434040653978
 30
0.0
 11
21.99317965050861
 21
-9.777557447300058
 31
0.0
  0
LINE
  5
969
330
CA0
100
AcDbEntity
  8
TITLEBLOCK_NOTES
  6
Continuous
 62
     3
100
AcDbLine
 10
21.3700604627837
 20
-9.769258218703191
 30
0.0
 11
21.99317965050861
 21
-9.758381625349208
 31
0.0
  0
LINE
  5
96A
330
CA0
100
AcDbEntity
  8
TITLEBLOCK_NOTES
  6
Continuous
 62
     3
100
AcDbLine
 10
21.3700604627837
 20
-9.750082396752402
 30
0.0
 11
21.99317965050861
 21
-9.739205803398418
 31
0.0
  0
LINE
  5
96B
330
CA0
100
AcDbEntity
  8
TITLEBLOCK_NOTES
  6
Continuous
 62
     3
100
AcDbLine
 10
21.3700604627837
 20
-9.730906574801617
 30
0.0
 11
21.99317965050861
 21
-9.720029981447629
 31
0.0
  0
LINE
  5
96C
330
CA0
100
AcDbEntity
  8
TITLEBLOCK_NOTES
  6
Continuous
 62
     3
100
AcDbLine
 10
21.3700604627837
 20
-9.711730752850829
 30
0.0
 11
21.99317965050861
 21
-9.700854159496845
 31
0.0
  0
LINE
  5
96D
330
CA0
100
AcDbEntity
  8
TITLEBLOCK_NOTES
  6
Continuous
 62
     3
100
AcDbLine
 10
21.3700604627837
 20
-9.692554930899975
 30
0.0
 11
21.99317965050861
 21
-9.681678337546056
 31
0.0
  0
LINE
  5
96E
330
CA0
100
AcDbEntity
  8
TITLEBLOCK_NOTES
  6
Continuous
 62
     3
100
AcDbLine
 10
21.3700604627837
 20
-9.673379108949188
 30
0.0
 11
21.99317965050861
 21
-9.662502515595203
 31
0.0
  0
LINE
  5
96F
330
CA0
100
AcDbEntity
  8
TITLEBLOCK_NOTES
  6
Continuous
 62
     3
100
AcDbLine
 10
21.3700604627837
 20
-9.654203286998399
 30
0.0
 11
21.99317965050861
 21
-9.643326693644418
 31
0.0
  0
LINE
  5
970
330
CA0
100
AcDbEntity
  8
TITLEBLOCK_NOTES
  6
Continuous
 62
     3
100
AcDbLine
 10
21.99317965050861
 20
-9.63233913714275
 30
0.0
 11
21.3700604627837
 21
-9.63233913714275
 31
0.0
  0
LINE
  5
971
330
CA0
100
AcDbEntity
  8
TITLEBLOCK_NOTES
  6
Continuous
 62
     3
100
AcDbLine
 10
21.99317965050861
 20
-10.00975840283913
 30
0.0
 11
21.3700604627837
 21
-10.00975840283913
 31
0.0
  0
LINE
  5
972
330
CA0
100
AcDbEntity
  8
TITLEBLOCK_NOTES
  6
Continuous
 62
     3
100
AcDbLine
 10
21.99258433202315
 20
-10.10411321926326
 30
0.0
 11
21.37065573333692
 21
-10.10411321926326
 31
0.0
  0
LINE
  5
973
330
CA0
100
AcDbEntity
  8
TITLEBLOCK_NOTES
  6
Continuous
 62
     3
100
AcDbLine
 10
21.3700604627837
 20
-9.47736800512051
 30
0.0
 11
21.99317965050861
 21
-9.466491411766462
 31
0.0
  0
LINE
  5
974
330
CA0
100
AcDbEntity
  8
TITLEBLOCK_NOTES
  6
Continuous
 62
     3
100
AcDbLine
 10
21.3700604627837
 20
-9.534895423040627
 30
0.0
 11
21.99317965050861
 21
-9.524018877618892
 31
0.0
  0
LINE
  5
975
330
CA0
100
AcDbEntity
  8
TITLEBLOCK_NOTES
  6
Continuous
 62
     3
100
AcDbLine
 10
21.3700604627837
 20
-9.515719649022083
 30
0.0
 11
21.99317965050861
 21
-9.504843055668102
 31
0.0
  0
LINE
  5
976
330
CA0
100
AcDbEntity
  8
TITLEBLOCK_NOTES
  6
Continuous
 62
     3
100
AcDbLine
 10
21.3700604627837
 20
-9.496543827071295
 30
0.0
 11
21.99317965050861
 21
-9.485667233717318
 31
0.0
  0
LINE
  5
977
330
CA0
100
AcDbEntity
  8
TITLEBLOCK_NOTES
  6
Continuous
 62
     3
100
AcDbLine
 10
21.99317965050861
 20
-9.537984320718685
 30
0.0
 11
21.3700604627837
 21
-9.537984320718685
 31
0.0
  0
LINE
  5
978
330
CA0
100
AcDbEntity
  8
TITLEBLOCK_NOTES
  6
Continuous
 62
     3
100
AcDbLine
 10
21.99317965050861
 20
-9.185286062556915
 30
0.0
 11
21.3700604627837
 21
-9.185286062556915
 31
0.0
  0
LINE
  5
979
330
CA0
100
AcDbEntity
  8
TITLEBLOCK_NOTES
  6
Continuous
 62
     3
100
AcDbLine
 10
21.99317965050861
 20
-9.161319939952059
 30
0.0
 11
21.3700604627837
 21
-9.161319939952059
 31
0.0
  0
LINE
  5
97A
330
CA0
100
AcDbEntity
  8
TITLEBLOCK_NOTES
  6
Continuous
 62
     3
100
AcDbLine
 10
21.99317965050861
 20
-9.137353817347271
 30
0.0
 11
21.3700604627837
 21
-9.137353817347271
 31
0.0
  0
LINE
  5
97B
330
CA0
100
AcDbEntity
  8
TITLEBLOCK_NOTES
  6
Continuous
 62
     3
100
AcDbLine
 10
21.3700604627837
 20
-9.343137251464867
 30
0.0
 11
21.99317965050861
 21
-9.332260658110886
 31
0.0
  0
LINE
  5
97C
330
CA0
100
AcDbEntity
  8
TITLEBLOCK_NOTES
  6
Continuous
 62
     3
100
AcDbLine
 10
21.3700604627837
 20
-9.32396142951408
 30
0.0
 11
21.99317965050861
 21
-9.313084836160099
 31
0.0
  0
LINE
  5
97D
330
CA0
100
AcDbEntity
  8
TITLEBLOCK_NOTES
  6
Continuous
 62
     3
100
AcDbLine
 10
21.99317965050861
 20
-9.302097327590674
 30
0.0
 11
21.3700604627837
 21
-9.302097327590674
 31
0.0
  0
LINE
  5
97E
330
CA0
100
AcDbEntity
  8
TITLEBLOCK_NOTES
  6
Continuous
 62
     3
100
AcDbLine
 10
21.99317965050861
 20
-9.207742511166614
 30
0.0
 11
21.3700604627837
 21
-9.207742511166614
 31
0.0
  0
LINE
  5
97F
330
CA0
100
AcDbEntity
  8
TITLEBLOCK_NOTES
  6
Continuous
 62
     3
100
AcDbLine
 10
21.3700604627837
 20
-9.458192183169661
 30
0.0
 11
21.99317965050861
 21
-9.447315589815678
 31
0.0
  0
LINE
  5
980
330
CA0
100
AcDbEntity
  8
TITLEBLOCK_NOTES
  6
Continuous
 62
     3
100
AcDbLine
 10
21.3700604627837
 20
-9.439016361218872
 30
0.0
 11
21.99317965050861
 21
-9.428139767864887
 31
0.0
  0
LINE
  5
981
330
CA0
100
AcDbEntity
  8
TITLEBLOCK_NOTES
  6
Continuous
 62
     3
100
AcDbLine
 10
21.3700604627837
 20
-9.419840539268083
 30
0.0
 11
21.99317965050861
 21
-9.408963945914102
 31
0.0
  0
LINE
  5
982
330
CA0
100
AcDbEntity
  8
TITLEBLOCK_NOTES
  6
Continuous
 62
     3
100
AcDbLine
 10
21.3700604627837
 20
-9.400664717317296
 30
0.0
 11
21.99317965050861
 21
-9.389788123963315
 31
0.0
  0
LINE
  5
983
330
CA0
100
AcDbEntity
  8
TITLEBLOCK_NOTES
  6
Continuous
 62
     3
100
AcDbLine
 10
21.3700604627837
 20
-9.381488895366512
 30
0.0
 11
21.99317965050861
 21
-9.37061230201246
 31
0.0
  0
LINE
  5
984
330
CA0
100
AcDbEntity
  8
TITLEBLOCK_NOTES
  6
Continuous
 62
     3
100
AcDbLine
 10
21.3700604627837
 20
-9.362313073415656
 30
0.0
 11
21.99317965050861
 21
-9.351436480061671
 31
0.0
  0
LINE
  5
985
330
CA0
100
AcDbEntity
  8
TITLEBLOCK_NOTES
  6
Continuous
 62
     3
100
AcDbLine
 10
21.99317965050861
 20
-9.113387694742483
 30
0.0
 11
21.3700604627837
 21
-9.113387694742483
 31
0.0
  0
LINE
  5
986
330
CA0
100
AcDbEntity
  8
TITLEBLOCK_NOTES
  6
Continuous
 62
     3
100
AcDbLine
 10
21.46727923085899
 20
-10.25583320295744
 30
0.0
 11
21.90841741845376
 21
-10.24813307949354
 31
0.0
  0
LINE
  5
987
330
CA0
100
AcDbEntity
  8
TITLEBLOCK_NOTES
  6
Continuous
 62
     3
100
AcDbLine
 10
21.51221221168912
 20
-10.27422470957993
 30
0.0
 11
21.87025333342775
 21
-10.26797506378826
 31
0.0
  0
LINE
  5
988
330
CA0
100
AcDbEntity
  8
TITLEBLOCK_NOTES
  6
Continuous
 62
     3
100
AcDbLine
 10
21.44004556709825
 20
-10.23713272508238
 30
0.0
 11
21.93296610956688
 21
-10.22852879120278
 31
0.0
  0
LINE
  5
989
330
CA0
100
AcDbEntity
  8
TITLEBLOCK_NOTES
  6
Continuous
 62
     3
100
AcDbLine
 10
21.42020923880858
 20
-10.21830316567101
 30
0.0
 11
21.9509653386946
 21
-10.20903877338463
 31
0.0
  0
LINE
  5
98A
330
CA0
100
AcDbEntity
  8
TITLEBLOCK_NOTES
  6
Continuous
 62
     3
100
AcDbLine
 10
21.40501850372443
 20
-10.19939250490069
 30
0.0
 11
21.96466260088239
 21
-10.18962386539473
 31
0.0
  0
LINE
  5
98B
330
CA0
100
AcDbEntity
  8
TITLEBLOCK_NOTES
  6
Continuous
 62
     3
100
AcDbLine
 10
21.39325156891563
 20
-10.18042207262064
 30
0.0
 11
21.97511288484753
 21
-10.17026566125091
 31
0.0
  0
ARC
  5
98C
330
CA0
100
AcDbEntity
  8
TITLEBLOCK_NOTES
  6
Continuous
 62
     3
100
AcDbCircle
 10
21.56178944362215
 20
-10.08901643137977
 30
0.0
 40
0.2156951034432412
100
AcDbArc
 50
180.0000046799998
 51
269.9999931699998
  0
ARC
  5
98D
330
CA0
100
AcDbEntity
  8
TITLEBLOCK_NOTES
  6
Continuous
 62
     3
100
AcDbCircle
 10
21.56178944362215
 20
-10.08901643137977
 30
0.0
 40
0.2396612260480459
100
AcDbArc
 50
180.0000046799998
 51
269.9999931699998
  0
ARC
  5
98E
330
CA0
100
AcDbEntity
  8
TITLEBLOCK_NOTES
  6
Continuous
 62
     3
100
AcDbCircle
 10
21.56178944362215
 20
-10.08901643137977
 30
0.0
 40
0.1917289808384366
100
AcDbArc
 50
180.0000052300003
 51
269.9999947699997
  0
LINE
  5
98F
330
CA0
100
AcDbEntity
  8
TITLEBLOCK_NOTES
  6
Continuous
 62
     3
100
AcDbLine
 10
21.3700604627837
 20
-9.635027465047611
 30
0.0
 11
21.5240739564789
 21
-9.63233913714275
 31
0.0
  0
LINE
  5
990
330
CA0
100
AcDbEntity
  8
TITLEBLOCK_NOTES
  6
Continuous
 62
     3
100
AcDbLine
 10
21.3700604627837
 20
-9.304785607563228
 30
0.0
 11
21.5240739564789
 21
-9.302097327590674
 31
0.0
  0
LINE
  5
991
330
CA0
100
AcDbEntity
  8
TITLEBLOCK_NOTES
  6
Continuous
 62
     3
100
AcDbLine
 10
21.34609434017885
 20
-10.08901647931202
 30
0.0
 11
21.34609434017885
 21
-8.55518458467232
 31
0.0
  0
LINE
  5
992
330
CA0
100
AcDbEntity
  8
TITLEBLOCK_NOTES
  6
Continuous
 62
     3
100
AcDbLine
 10
21.3700604627837
 20
-10.08901647931202
 30
0.0
 11
21.3700604627837
 21
-8.531218462067469
 31
0.0
  0
LINE
  5
993
330
CA0
100
AcDbEntity
  8
TITLEBLOCK_NOTES
  6
Continuous
 62
     3
100
AcDbLine
 10
22.01714577311345
 20
-10.08901647931202
 30
0.0
 11
22.01714577311345
 21
-8.55518458467232
 31
0.0
  0
LINE
  5
994
330
CA0
100
AcDbEntity
  8
TITLEBLOCK_NOTES
  6
Continuous
 62
     3
100
AcDbLine
 10
21.99317965050861
 20
-8.531218462067469
 30
0.0
 11
21.99317965050861
 21
-10.08901643137977
 31
0.0
  0
LINE
  5
995
330
CA0
100
AcDbEntity
  8
TITLEBLOCK_NOTES
  6
Continuous
 62
     3
100
AcDbLine
 10
22.04111189571819
 20
-8.579150707277106
 30
0.0
 11
22.04111189571819
 21
-10.08901647931202
 31
0.0
  0
LINE
  5
996
330
CA0
100
AcDbEntity
  8
TITLEBLOCK_NOTES
  6
Continuous
 62
     3
100
AcDbLine
 10
21.32212821757413
 20
-8.579150707277106
 30
0.0
 11
21.32212821757413
 21
-10.08901647931202
 31
0.0
  0
LINE
  5
997
330
CA0
100
AcDbEntity
  8
TITLEBLOCK_NOTES
  6
Continuous
 62
     3
100
AcDbLine
 10
20.93867025589725
 20
-10.08901643137977
 30
0.0
 11
20.93867025589725
 21
-8.55518458467232
 31
0.0
  0
LINE
  5
998
330
CA0
100
AcDbEntity
  8
TITLEBLOCK_NOTES
  6
Continuous
 62
     3
100
AcDbLine
 10
20.91470413329233
 20
-8.531218462067469
 30
0.0
 11
20.91470413329233
 21
-10.08901643137977
 31
0.0
  0
LINE
  5
999
330
CA0
100
AcDbEntity
  8
TITLEBLOCK_NOTES
  6
Continuous
 62
     3
100
AcDbLine
 10
20.96263637850204
 20
-8.579150707277106
 30
0.0
 11
20.96263637850204
 21
-10.08901643137977
 31
0.0
  0
LINE
  5
99A
330
CA0
100
AcDbEntity
  8
TITLEBLOCK_NOTES
  6
Continuous
 62
     3
100
AcDbLine
 10
21.56178934775772
 20
-10.71213561910473
 30
0.0
 11
21.80145066967023
 21
-10.71213561910473
 31
0.0
  0
LINE
  5
99B
330
CA0
100
AcDbEntity
  8
TITLEBLOCK_NOTES
  6
Continuous
 62
     3
100
AcDbLine
 10
21.56178934775772
 20
-10.73610174170952
 30
0.0
 11
21.80145066967023
 21
-10.73610174170952
 31
0.0
  0
LINE
  5
99C
330
CA0
100
AcDbEntity
  8
TITLEBLOCK_NOTES
  6
Continuous
 62
     3
100
AcDbLine
 10
21.56178934775772
 20
-10.68816949649988
 30
0.0
 11
21.80145066967023
 21
-10.68816949649988
 31
0.0
  0
ARC
  5
99D
330
CA0
100
AcDbEntity
  8
TITLEBLOCK_NOTES
  6
Continuous
 62
     3
100
AcDbCircle
 10
21.56178944362215
 20
-10.08901643137977
 30
0.0
 40
0.623119187724919
100
AcDbArc
 50
180.0
 51
269.9999934300004
  0
ARC
  5
99E
330
CA0
100
AcDbEntity
  8
TITLEBLOCK_NOTES
  6
Continuous
 62
     3
100
AcDbCircle
 10
21.56178944362215
 20
-10.08901643137977
 30
0.0
 40
0.6470853103297239
100
AcDbArc
 50
180.0
 51
269.9999934300004
  0
ARC
  5
99F
330
CA0
100
AcDbEntity
  8
TITLEBLOCK_NOTES
  6
Continuous
 62
     3
100
AcDbCircle
 10
21.56178944362215
 20
-10.08901643137977
 30
0.0
 40
0.5991530651201146
100
AcDbArc
 50
180.0
 51
269.9999931699998
  0
LINE
  5
9A0
330
CA0
100
AcDbEntity
  8
TITLEBLOCK_NOTES
  6
Continuous
 62
     3
100
AcDbLine
 10
23.67080823284492
 20
-8.531218462067469
 30
0.0
 11
23.67080823284492
 21
-8.986574791558776
 31
0.0
  0
LINE
  5
9A1
330
CA0
100
AcDbEntity
  8
TITLEBLOCK_NOTES
  6
Continuous
 62
     3
100
AcDbLine
 10
22.64026496083836
 20
-8.531218462067469
 30
0.0
 11
23.0956212903296
 21
-8.531218462067469
 31
0.0
  0
LINE
  5
9A2
330
CA0
100
AcDbEntity
  8
TITLEBLOCK_NOTES
  6
Continuous
 62
     3
100
AcDbLine
 10
22.64026496083836
 20
-8.806357122865373
 30
0.0
 11
22.44853597999993
 21
-8.806357122865373
 31
0.0
  0
LINE
  5
9A3
330
CA0
100
AcDbEntity
  8
TITLEBLOCK_NOTES
  6
Continuous
 62
     3
100
AcDbLine
 10
22.64026496083836
 20
-8.78239100026059
 30
0.0
 11
22.44853597999993
 21
-8.78239100026059
 31
0.0
  0
LINE
  5
9A4
330
CA0
100
AcDbEntity
  8
TITLEBLOCK_NOTES
  6
Continuous
 62
     3
100
AcDbLine
 10
22.64026496083836
 20
-8.758424877655734
 30
0.0
 11
22.44853597999993
 21
-8.758424877655734
 31
0.0
  0
LINE
  5
9A5
330
CA0
100
AcDbEntity
  8
TITLEBLOCK_NOTES
  6
Continuous
 62
     3
100
AcDbLine
 10
22.64026496083836
 20
-8.83032324547023
 30
0.0
 11
22.44853597999993
 21
-8.83032324547023
 31
0.0
  0
LINE
  5
9A6
330
CA0
100
AcDbEntity
  8
TITLEBLOCK_NOTES
  6
Continuous
 62
     3
100
AcDbLine
 10
22.66423108344309
 20
-8.55518458467232
 30
0.0
 11
23.07165516772489
 21
-8.55518458467232
 31
0.0
  0
LINE
  5
9A7
330
CA0
100
AcDbEntity
  8
TITLEBLOCK_NOTES
  6
Continuous
 62
     3
100
AcDbLine
 10
22.68819720604794
 20
-8.579150707277106
 30
0.0
 11
23.04768904512002
 21
-8.579150707277106
 31
0.0
  0
LINE
  5
9A8
330
CA0
100
AcDbEntity
  8
TITLEBLOCK_NOTES
  6
Continuous
 62
     3
100
AcDbLine
 10
22.36599545544283
 20
-10.40525775936083
 30
0.0
 11
22.64026496083836
 21
-10.4004703825738
 31
0.0
  0
LINE
  5
9A9
330
CA0
100
AcDbEntity
  8
TITLEBLOCK_NOTES
  6
Continuous
 62
     3
100
AcDbLine
 10
22.37641103646246
 20
-10.38590017833619
 30
0.0
 11
22.64026496083836
 21
-10.38129456062302
 31
0.0
  0
LINE
  5
9AA
330
CA0
100
AcDbEntity
  8
TITLEBLOCK_NOTES
  6
Continuous
 62
     3
100
AcDbLine
 10
22.38599369885698
 20
-10.36655707284966
 30
0.0
 11
22.64026496083836
 21
-10.36211873867217
 31
0.0
  0
LINE
  5
9AB
330
CA0
100
AcDbEntity
  8
TITLEBLOCK_NOTES
  6
Continuous
 62
     3
100
AcDbLine
 10
22.39478552713776
 20
-10.34722777184969
 30
0.0
 11
22.64026496083836
 21
-10.34294291672138
 31
0.0
  0
LINE
  5
9AC
330
CA0
100
AcDbEntity
  8
TITLEBLOCK_NOTES
  6
Continuous
 62
     3
100
AcDbLine
 10
22.35469777731466
 20
-10.42463082250066
 30
0.0
 11
22.64026496083836
 21
-10.4196462045246
 31
0.0
  0
LINE
  5
9AD
330
CA0
100
AcDbEntity
  8
TITLEBLOCK_NOTES
  6
Continuous
 62
     3
100
AcDbLine
 10
22.26425864186615
 20
-10.54126435476923
 30
0.0
 11
22.64026496083836
 21
-10.53470113622939
 31
0.0
  0
LINE
  5
9AE
330
CA0
100
AcDbEntity
  8
TITLEBLOCK_NOTES
  6
Continuous
 62
     3
100
AcDbLine
 10
22.28253717218673
 20
-10.52176944786208
 30
0.0
 11
22.64026496083836
 21
-10.5155253142786
 31
0.0
  0
LINE
  5
9AF
330
CA0
100
AcDbEntity
  8
TITLEBLOCK_NOTES
  6
Continuous
 62
     3
100
AcDbLine
 10
22.29936244476467
 20
-10.50229994504487
 30
0.0
 11
22.64026496083836
 21
-10.49634949232781
 31
0.0
  0
LINE
  5
9B0
330
CA0
100
AcDbEntity
  8
TITLEBLOCK_NOTES
  6
Continuous
 62
     3
100
AcDbLine
 10
22.31488223471226
 20
-10.48285325797638
 30
0.0
 11
22.64026496083836
 21
-10.47717367037703
 31
0.0
  0
LINE
  5
9B1
330
CA0
100
AcDbEntity
  8
TITLEBLOCK_NOTES
  6
Continuous
 62
     3
100
AcDbLine
 10
22.32921570159067
 20
-10.46342722970562
 30
0.0
 11
22.64026496083836
 21
-10.45799784842617
 31
0.0
  0
LINE
  5
9B2
330
CA0
100
AcDbEntity
  8
TITLEBLOCK_NOTES
  6
Continuous
 62
     3
100
AcDbLine
 10
22.34246057924821
 20
-10.44402023053613
 30
0.0
 11
22.64026496083836
 21
-10.43882202647539
 31
0.0
  0
LINE
  5
9B3
330
CA0
100
AcDbEntity
  8
TITLEBLOCK_NOTES
  6
Continuous
 62
     3
100
AcDbLine
 10
22.22254028499334
 20
-10.58034418534003
 30
0.0
 11
22.64026496083836
 21
-10.57305278013103
 31
0.0
  0
LINE
  5
9B4
330
CA0
100
AcDbEntity
  8
TITLEBLOCK_NOTES
  6
Continuous
 62
     3
100
AcDbLine
 10
22.2443402056404
 20
-10.56078782929453
 30
0.0
 11
22.64026496083836
 21
-10.55387695818024
 31
0.0
  0
LINE
  5
9B5
330
CA0
100
AcDbEntity
  8
TITLEBLOCK_NOTES
  6
Continuous
 62
     3
100
AcDbLine
 10
22.40282280601453
 20
-10.32791170014942
 30
0.0
 11
22.64026496083836
 21
-10.3237670947706
 31
0.0
  0
LINE
  5
9B6
330
CA0
100
AcDbEntity
  8
TITLEBLOCK_NOTES
  6
Continuous
 62
     3
100
AcDbLine
 10
22.41013683524329
 20
-10.30860818669733
 30
0.0
 11
22.64026496083836
 21
-10.30459132075205
 31
0.0
  0
LINE
  5
9B7
330
CA0
100
AcDbEntity
  8
TITLEBLOCK_NOTES
  6
Continuous
 62
     3
100
AcDbLine
 10
22.41675474447487
 20
-10.28931684803563
 30
0.0
 11
22.64026496083836
 21
-10.2854154988012
 31
0.0
  0
LINE
  5
9B8
330
CA0
100
AcDbEntity
  8
TITLEBLOCK_NOTES
  6
Continuous
 62
     3
100
AcDbLine
 10
22.42270006844177
 20
-10.2700372527739
 30
0.0
 11
22.64026496083836
 21
-10.26623967685042
 31
0.0
  0
LINE
  5
9B9
330
CA0
100
AcDbEntity
  8
TITLEBLOCK_NOTES
  6
Continuous
 62
     3
100
AcDbLine
 10
22.42799313041576
 20
-10.25076906538658
 30
0.0
 11
22.64026496083836
 21
-10.24706385489962
 31
0.0
  0
LINE
  5
9BA
330
CA0
100
AcDbEntity
  8
TITLEBLOCK_NOTES
  6
Continuous
 62
     3
100
AcDbLine
 10
22.43265142566652
 20
-10.23151195034794
 30
0.0
 11
22.64026496083836
 21
-10.22788803294884
 31
0.0
  0
LINE
  5
9BB
330
CA0
100
AcDbEntity
  8
TITLEBLOCK_NOTES
  6
Continuous
 62
     3
100
AcDbLine
 10
22.43669000491878
 20
-10.21226562006445
 30
0.0
 11
22.64026496083836
 21
-10.20871221099804
 31
0.0
  0
LINE
  5
9BC
330
CA0
100
AcDbEntity
  8
TITLEBLOCK_NOTES
  6
Continuous
 62
     3
100
AcDbLine
 10
22.44012161815003
 20
-10.19302988280706
 30
0.0
 11
22.64026496083836
 21
-10.1895363890472
 31
0.0
  0
LINE
  5
9BD
330
CA0
100
AcDbEntity
  8
TITLEBLOCK_NOTES
  6
Continuous
 62
     3
100
AcDbLine
 10
22.44295700218331
 20
-10.17380459477926
 30
0.0
 11
22.64026496083836
 21
-10.17036056709641
 31
0.0
  0
LINE
  5
9BE
330
CA0
100
AcDbEntity
  8
TITLEBLOCK_NOTES
  6
Continuous
 62
     3
100
AcDbLine
 10
22.44853597999993
 20
-9.99971899408003
 30
0.0
 11
22.64026496083836
 21
-9.996372316787228
 31
0.0
  0
LINE
  5
9BF
330
CA0
100
AcDbEntity
  8
TITLEBLOCK_NOTES
  6
Continuous
 62
     3
100
AcDbLine
 10
22.64026496083836
 20
-10.00975840283913
 30
0.0
 11
22.44853597999993
 21
-10.00975840283913
 31
0.0
  0
LINE
  5
9C0
330
CA0
100
AcDbEntity
  8
TITLEBLOCK_NOTES
  6
Continuous
 62
     3
100
AcDbLine
 10
22.44853597999993
 20
-9.980543172129175
 30
0.0
 11
22.64026496083836
 21
-9.97719654276868
 31
0.0
  0
LINE
  5
9C1
330
CA0
100
AcDbEntity
  8
TITLEBLOCK_NOTES
  6
Continuous
 62
     3
100
AcDbLine
 10
22.44853597999993
 20
-9.961367350178386
 30
0.0
 11
22.64026496083836
 21
-9.958020720817827
 31
0.0
  0
LINE
  5
9C2
330
CA0
100
AcDbEntity
  8
TITLEBLOCK_NOTES
  6
Continuous
 62
     3
100
AcDbLine
 10
22.44853597999993
 20
-9.942191528227603
 30
0.0
 11
22.64026496083836
 21
-9.93884489886704
 31
0.0
  0
LINE
  5
9C3
330
CA0
100
AcDbEntity
  8
TITLEBLOCK_NOTES
  6
Continuous
 62
     3
100
AcDbLine
 10
22.44853597999993
 20
-9.923015706276814
 30
0.0
 11
22.64026496083836
 21
-9.919669076916255
 31
0.0
  0
LINE
  5
9C4
330
CA0
100
AcDbEntity
  8
TITLEBLOCK_NOTES
  6
Continuous
 62
     3
100
AcDbLine
 10
22.44853597999993
 20
-9.903839884326028
 30
0.0
 11
22.64026496083836
 21
-9.900493254965468
 31
0.0
  0
LINE
  5
9C5
330
CA0
100
AcDbEntity
  8
TITLEBLOCK_NOTES
  6
Continuous
 62
     3
100
AcDbLine
 10
22.44853597999993
 20
-9.884664062375176
 30
0.0
 11
22.64026496083836
 21
-9.881317433014615
 31
0.0
  0
LINE
  5
9C6
330
CA0
100
AcDbEntity
  8
TITLEBLOCK_NOTES
  6
Continuous
 62
     3
100
AcDbLine
 10
22.44853597999993
 20
-9.86548824042439
 30
0.0
 11
22.64026496083836
 21
-9.86214161106389
 31
0.0
  0
LINE
  5
9C7
330
CA0
100
AcDbEntity
  8
TITLEBLOCK_NOTES
  6
Continuous
 62
     3
100
AcDbLine
 10
22.44853597999993
 20
-9.846312418473599
 30
0.0
 11
22.64026496083836
 21
-9.842965789113042
 31
0.0
  0
LINE
  5
9C8
330
CA0
100
AcDbEntity
  8
TITLEBLOCK_NOTES
  6
Continuous
 62
     3
100
AcDbLine
 10
22.44853597999993
 20
-9.827136596522748
 30
0.0
 11
22.64026496083836
 21
-9.823789967162255
 31
0.0
  0
LINE
  5
9C9
330
CA0
100
AcDbEntity
  8
TITLEBLOCK_NOTES
  6
Continuous
 62
     3
100
AcDbLine
 10
22.44853597999993
 20
-9.807960774571959
 30
0.0
 11
22.64026496083836
 21
-9.804614145211468
 31
0.0
  0
LINE
  5
9CA
330
CA0
100
AcDbEntity
  8
TITLEBLOCK_NOTES
  6
Continuous
 62
     3
100
AcDbLine
 10
22.44853597999993
 20
-9.788784952621242
 30
0.0
 11
22.64026496083836
 21
-9.785438323260679
 31
0.0
  0
LINE
  5
9CB
330
CA0
100
AcDbEntity
  8
TITLEBLOCK_NOTES
  6
Continuous
 62
     3
100
AcDbLine
 10
22.44853597999993
 20
-9.76960917860263
 30
0.0
 11
22.64026496083836
 21
-9.766262501309894
 31
0.0
  0
LINE
  5
9CC
330
CA0
100
AcDbEntity
  8
TITLEBLOCK_NOTES
  6
Continuous
 62
     3
100
AcDbLine
 10
22.44853597999993
 20
-9.750433356651848
 30
0.0
 11
22.64026496083836
 21
-9.747086679359039
 31
0.0
  0
LINE
  5
9CD
330
CA0
100
AcDbEntity
  8
TITLEBLOCK_NOTES
  6
Continuous
 62
     3
100
AcDbLine
 10
22.44853597999993
 20
-9.731257534701056
 30
0.0
 11
22.64026496083836
 21
-9.727910857408254
 31
0.0
  0
LINE
  5
9CE
330
CA0
100
AcDbEntity
  8
TITLEBLOCK_NOTES
  6
Continuous
 62
     3
100
AcDbLine
 10
22.44853597999993
 20
-9.712081712750203
 30
0.0
 11
22.64026496083836
 21
-9.708735035457463
 31
0.0
  0
LINE
  5
9CF
330
CA0
100
AcDbEntity
  8
TITLEBLOCK_NOTES
  6
Continuous
 62
     3
100
AcDbLine
 10
22.44853597999993
 20
-9.692905890799416
 30
0.0
 11
22.64026496083836
 21
-9.689559261438859
 31
0.0
  0
LINE
  5
9D0
330
CA0
100
AcDbEntity
  8
TITLEBLOCK_NOTES
  6
Continuous
 62
     3
100
AcDbLine
 10
22.44853597999993
 20
-9.67373006884863
 30
0.0
 11
22.64026496083836
 21
-9.670383439488073
 31
0.0
  0
LINE
  5
9D1
330
CA0
100
AcDbEntity
  8
TITLEBLOCK_NOTES
  6
Continuous
 62
     3
100
AcDbLine
 10
22.44853597999993
 20
-9.654554246897843
 30
0.0
 11
22.64026496083836
 21
-9.651207617537282
 31
0.0
  0
LINE
  5
9D2
330
CA0
100
AcDbEntity
  8
TITLEBLOCK_NOTES
  6
Continuous
 62
     3
100
AcDbLine
 10
22.44853597999993
 20
-9.635378424947056
 30
0.0
 11
22.6226559001867
 21
-9.63233913714275
 31
0.0
  0
LINE
  5
9D3
330
CA0
100
AcDbEntity
  8
TITLEBLOCK_NOTES
  6
Continuous
 62
     3
100
AcDbLine
 10
22.64026496083836
 20
-9.63233913714275
 30
0.0
 11
22.44853597999993
 21
-9.63233913714275
 31
0.0
  0
LINE
  5
9D4
330
CA0
100
AcDbEntity
  8
TITLEBLOCK_NOTES
  6
Continuous
 62
     3
100
AcDbLine
 10
22.44520492861909
 20
-10.1545895163196
 30
0.0
 11
22.64026496083836
 21
-10.15118474514562
 31
0.0
  0
LINE
  5
9D5
330
CA0
100
AcDbEntity
  8
TITLEBLOCK_NOTES
  6
Continuous
 62
     3
100
AcDbLine
 10
22.44687253936218
 20
-10.13538459949598
 30
0.0
 11
22.64026496083836
 21
-10.13200892319484
 31
0.0
  0
LINE
  5
9D6
330
CA0
100
AcDbEntity
  8
TITLEBLOCK_NOTES
  6
Continuous
 62
     3
100
AcDbLine
 10
22.44796515489175
 20
-10.11618970051154
 30
0.0
 11
22.64026496083836
 21
-10.11283310124405
 31
0.0
  0
LINE
  5
9D7
330
CA0
100
AcDbEntity
  8
TITLEBLOCK_NOTES
  6
Continuous
 62
     3
100
AcDbLine
 10
22.64026496083836
 20
-10.10411321926326
 30
0.0
 11
22.4483598289988
 21
-10.10411321926326
 31
0.0
  0
LINE
  5
9D8
330
CA0
100
AcDbEntity
  8
TITLEBLOCK_NOTES
  6
Continuous
 62
     3
100
AcDbLine
 10
22.44853597999993
 20
-9.535246382940071
 30
0.0
 11
22.64026496083836
 21
-9.531899753579507
 31
0.0
  0
LINE
  5
9D9
330
CA0
100
AcDbEntity
  8
TITLEBLOCK_NOTES
  6
Continuous
 62
     3
100
AcDbLine
 10
22.44853597999993
 20
-9.516070560989282
 30
0.0
 11
22.64026496083836
 21
-9.51272393162872
 31
0.0
  0
LINE
  5
9DA
330
CA0
100
AcDbEntity
  8
TITLEBLOCK_NOTES
  6
Continuous
 62
     3
100
AcDbLine
 10
22.44853597999993
 20
-9.496894786970674
 30
0.0
 11
22.64026496083836
 21
-9.493548109677936
 31
0.0
  0
LINE
  5
9DB
330
CA0
100
AcDbEntity
  8
TITLEBLOCK_NOTES
  6
Continuous
 62
     3
100
AcDbLine
 10
22.44853597999993
 20
-9.477718965019887
 30
0.0
 11
22.64026496083836
 21
-9.474372287727149
 31
0.0
  0
LINE
  5
9DC
330
CA0
100
AcDbEntity
  8
TITLEBLOCK_NOTES
  6
Continuous
 62
     3
100
AcDbLine
 10
22.64026496083836
 20
-9.537984320718685
 30
0.0
 11
22.44853597999993
 21
-9.537984320718685
 31
0.0
  0
LINE
  5
9DD
330
CA0
100
AcDbEntity
  8
TITLEBLOCK_NOTES
  6
Continuous
 62
     3
100
AcDbLine
 10
22.64026496083836
 20
-9.161319939952059
 30
0.0
 11
22.44853597999993
 21
-9.161319939952059
 31
0.0
  0
LINE
  5
9DE
330
CA0
100
AcDbEntity
  8
TITLEBLOCK_NOTES
  6
Continuous
 62
     3
100
AcDbLine
 10
22.64026496083836
 20
-9.137353817347271
 30
0.0
 11
22.44853597999993
 21
-9.137353817347271
 31
0.0
  0
LINE
  5
9DF
330
CA0
100
AcDbEntity
  8
TITLEBLOCK_NOTES
  6
Continuous
 62
     3
100
AcDbLine
 10
22.64026496083836
 20
-9.185286062556915
 30
0.0
 11
22.44853597999993
 21
-9.185286062556915
 31
0.0
  0
LINE
  5
9E0
330
CA0
100
AcDbEntity
  8
TITLEBLOCK_NOTES
  6
Continuous
 62
     3
100
AcDbLine
 10
22.64026496083836
 20
-9.207742511166614
 30
0.0
 11
22.44853597999993
 21
-9.207742511166614
 31
0.0
  0
LINE
  5
9E1
330
CA0
100
AcDbEntity
  8
TITLEBLOCK_NOTES
  6
Continuous
 62
     3
100
AcDbLine
 10
22.44853597999993
 20
-9.343488211364311
 30
0.0
 11
22.64026496083836
 21
-9.340141582003747
 31
0.0
  0
LINE
  5
9E2
330
CA0
100
AcDbEntity
  8
TITLEBLOCK_NOTES
  6
Continuous
 62
     3
100
AcDbLine
 10
22.44853597999993
 20
-9.324312389413519
 30
0.0
 11
22.64026496083836
 21
-9.320965760052963
 31
0.0
  0
LINE
  5
9E3
330
CA0
100
AcDbEntity
  8
TITLEBLOCK_NOTES
  6
Continuous
 62
     3
100
AcDbLine
 10
22.44853597999993
 20
-9.305136567462671
 30
0.0
 11
22.6226559001867
 21
-9.302097327590674
 31
0.0
  0
LINE
  5
9E4
330
CA0
100
AcDbEntity
  8
TITLEBLOCK_NOTES
  6
Continuous
 62
     3
100
AcDbLine
 10
22.64026496083836
 20
-9.302097327590674
 30
0.0
 11
22.44853597999993
 21
-9.302097327590674
 31
0.0
  0
LINE
  5
9E5
330
CA0
100
AcDbEntity
  8
TITLEBLOCK_NOTES
  6
Continuous
 62
     3
100
AcDbLine
 10
22.44853597999993
 20
-9.458543143069096
 30
0.0
 11
22.64026496083836
 21
-9.455196465776296
 31
0.0
  0
LINE
  5
9E6
330
CA0
100
AcDbEntity
  8
TITLEBLOCK_NOTES
  6
Continuous
 62
     3
100
AcDbLine
 10
22.44853597999993
 20
-9.439367321118311
 30
0.0
 11
22.64026496083836
 21
-9.436020691757752
 31
0.0
  0
LINE
  5
9E7
330
CA0
100
AcDbEntity
  8
TITLEBLOCK_NOTES
  6
Continuous
 62
     3
100
AcDbLine
 10
22.44853597999993
 20
-9.420191499167522
 30
0.0
 11
22.64026496083836
 21
-9.416844869806963
 31
0.0
  0
LINE
  5
9E8
330
CA0
100
AcDbEntity
  8
TITLEBLOCK_NOTES
  6
Continuous
 62
     3
100
AcDbLine
 10
22.44853597999993
 20
-9.401015677216671
 30
0.0
 11
22.64026496083836
 21
-9.397669047856178
 31
0.0
  0
LINE
  5
9E9
330
CA0
100
AcDbEntity
  8
TITLEBLOCK_NOTES
  6
Continuous
 62
     3
100
AcDbLine
 10
22.44853597999993
 20
-9.381839855265884
 30
0.0
 11
22.64026496083836
 21
-9.378493225905325
 31
0.0
  0
LINE
  5
9EA
330
CA0
100
AcDbEntity
  8
TITLEBLOCK_NOTES
  6
Continuous
 62
     3
100
AcDbLine
 10
22.44853597999993
 20
-9.362664033315097
 30
0.0
 11
22.64026496083836
 21
-9.359317403954538
 31
0.0
  0
LINE
  5
9EB
330
CA0
100
AcDbEntity
  8
TITLEBLOCK_NOTES
  6
Continuous
 62
     3
100
AcDbLine
 10
22.64026496083836
 20
-9.113387694742483
 30
0.0
 11
22.44853597999993
 21
-9.113387694742483
 31
0.0
  0
LINE
  5
9EC
330
CA0
100
AcDbEntity
  8
TITLEBLOCK_NOTES
  6
Continuous
 62
     3
100
AcDbLine
 10
23.07165516772489
 20
-10.30471153482307
 30
0.0
 11
23.07165516772489
 21
-8.55518458467232
 31
0.0
  0
LINE
  5
9ED
330
CA0
100
AcDbEntity
  8
TITLEBLOCK_NOTES
  6
Continuous
 62
     3
100
AcDbLine
 10
23.0956212903296
 20
-10.28074541221821
 30
0.0
 11
23.0956212903296
 21
-8.531218462067469
 31
0.0
  0
LINE
  5
9EE
330
CA0
100
AcDbEntity
  8
TITLEBLOCK_NOTES
  6
Continuous
 62
     3
100
AcDbLine
 10
23.04768904512002
 20
-8.579150707277106
 30
0.0
 11
23.04768904512002
 21
-10.32867765742786
 31
0.0
  0
LINE
  5
9EF
330
CA0
100
AcDbEntity
  8
TITLEBLOCK_NOTES
  6
Continuous
 62
     3
100
AcDbLine
 10
22.42456985739507
 20
-10.08901643137977
 30
0.0
 11
22.42456985739507
 21
-8.55518458467232
 31
0.0
  0
LINE
  5
9F0
330
CA0
100
AcDbEntity
  8
TITLEBLOCK_NOTES
  6
Continuous
 62
     3
100
AcDbLine
 10
22.44853597999993
 20
-10.08901643137977
 30
0.0
 11
22.44853597999993
 21
-8.531218462067469
 31
0.0
  0
LINE
  5
9F1
330
CA0
100
AcDbEntity
  8
TITLEBLOCK_NOTES
  6
Continuous
 62
     3
100
AcDbLine
 10
22.40060373479021
 20
-8.579150707277106
 30
0.0
 11
22.40060373479021
 21
-10.08901643137977
 31
0.0
  0
LINE
  5
9F2
330
CA0
100
AcDbEntity
  8
TITLEBLOCK_NOTES
  6
Continuous
 62
     3
100
AcDbLine
 10
23.0956212903296
 20
-8.806357122865373
 30
0.0
 11
23.67080823284492
 21
-8.806357122865373
 31
0.0
  0
LINE
  5
9F3
330
CA0
100
AcDbEntity
  8
TITLEBLOCK_NOTES
  6
Continuous
 62
     3
100
AcDbLine
 10
23.0956212903296
 20
-8.78239100026059
 30
0.0
 11
23.67080823284492
 21
-8.78239100026059
 31
0.0
  0
LINE
  5
9F4
330
CA0
100
AcDbEntity
  8
TITLEBLOCK_NOTES
  6
Continuous
 62
     3
100
AcDbLine
 10
23.0956212903296
 20
-8.758424877655734
 30
0.0
 11
23.67080823284492
 21
-8.758424877655734
 31
0.0
  0
LINE
  5
9F5
330
CA0
100
AcDbEntity
  8
TITLEBLOCK_NOTES
  6
Continuous
 62
     3
100
AcDbLine
 10
23.0956212903296
 20
-8.83032324547023
 30
0.0
 11
23.67080823284492
 21
-8.83032324547023
 31
0.0
  0
LINE
  5
9F6
330
CA0
100
AcDbEntity
  8
TITLEBLOCK_NOTES
  6
Continuous
 62
     3
100
AcDbLine
 10
23.0956212903296
 20
-10.10488483254662
 30
0.0
 11
23.13982728279668
 21
-10.10411321926326
 31
0.0
  0
LINE
  5
9F7
330
CA0
100
AcDbEntity
  8
TITLEBLOCK_NOTES
  6
Continuous
 62
     3
100
AcDbLine
 10
22.14193708592318
 20
-10.63927855845387
 30
0.0
 11
22.64026496083836
 21
-10.63058019805114
 31
0.0
  0
LINE
  5
9F8
330
CA0
100
AcDbEntity
  8
TITLEBLOCK_NOTES
  6
Continuous
 62
     3
100
AcDbLine
 10
22.17188515273007
 20
-10.61957998743679
 30
0.0
 11
22.64026496083836
 21
-10.61140437610036
 31
0.0
  0
LINE
  5
9F9
330
CA0
100
AcDbEntity
  8
TITLEBLOCK_NOTES
  6
Continuous
 62
     3
100
AcDbLine
 10
22.19853701489852
 20
-10.59993898304624
 30
0.0
 11
22.64026496083836
 21
-10.59222855414956
 31
0.0
  0
LINE
  5
9FA
330
CA0
100
AcDbEntity
  8
TITLEBLOCK_NOTES
  6
Continuous
 62
     3
100
AcDbLine
 10
22.66423108344309
 20
-10.71213561910473
 30
0.0
 11
22.66423108344309
 21
-8.55518458467232
 31
0.0
  0
LINE
  5
9FB
330
CA0
100
AcDbEntity
  8
TITLEBLOCK_NOTES
  6
Continuous
 62
     3
100
AcDbLine
 10
22.64026496083836
 20
-8.531218462067469
 30
0.0
 11
22.64026496083836
 21
-10.73610174170952
 31
0.0
  0
LINE
  5
9FC
330
CA0
100
AcDbEntity
  8
TITLEBLOCK_NOTES
  6
Continuous
 62
     3
100
AcDbLine
 10
22.68819720604794
 20
-10.68816949649988
 30
0.0
 11
22.68819720604794
 21
-8.579150707277106
 31
0.0
  0
LINE
  5
9FD
330
CA0
100
AcDbEntity
  8
TITLEBLOCK_NOTES
  6
Continuous
 62
     3
100
AcDbLine
 10
19.70441494174976
 20
-10.11199538939449
 30
0.0
 11
19.35690616398015
 21
-8.579150707277106
 31
0.0
  0
LINE
  5
9FE
330
CA0
100
AcDbEntity
  8
TITLEBLOCK_NOTES
  6
Continuous
 62
     3
100
AcDbLine
 10
19.70441494174976
 20
-10.00359934899095
 30
0.0
 11
19.37604713918869
 21
-8.55518458467232
 31
0.0
  0
LINE
  5
9FF
330
CA0
100
AcDbEntity
  8
TITLEBLOCK_NOTES
  6
Continuous
 62
     3
100
AcDbLine
 10
19.70441494174976
 20
-9.895203308587428
 30
0.0
 11
19.39518811439711
 21
-8.531218462067469
 31
0.0
  0
LINE
  5
A00
330
CA0
100
AcDbEntity
  8
TITLEBLOCK_NOTES
  6
Continuous
 62
     3
100
AcDbLine
 10
19.95669883698025
 20
-8.78239100026059
 30
0.0
 11
19.452130998587
 21
-8.78239100026059
 31
0.0
  0
LINE
  5
A01
330
CA0
100
AcDbEntity
  8
TITLEBLOCK_NOTES
  6
Continuous
 62
     3
100
AcDbLine
 10
19.95126552525676
 20
-8.806357122865373
 30
0.0
 11
19.4575643582428
 21
-8.806357122865373
 31
0.0
  0
LINE
  5
A02
330
CA0
100
AcDbEntity
  8
TITLEBLOCK_NOTES
  6
Continuous
 62
     3
100
AcDbLine
 10
19.44669768686356
 20
-8.758424877655734
 30
0.0
 11
19.96213214870383
 21
-8.758424877655734
 31
0.0
  0
LINE
  5
A03
330
CA0
100
AcDbEntity
  8
TITLEBLOCK_NOTES
  6
Continuous
 62
     3
100
AcDbLine
 10
19.46299766996623
 20
-8.830323245470166
 30
0.0
 11
19.94583216560109
 21
-8.830323245470166
 31
0.0
  0
LINE
  5
A04
330
CA0
100
AcDbEntity
  8
TITLEBLOCK_NOTES
  6
Continuous
 62
     3
100
AcDbLine
 10
19.49062461779894
 20
-10.73610174170952
 30
0.0
 11
19.91820521776839
 21
-10.73610174170952
 31
0.0
  0
LINE
  5
A05
330
CA0
100
AcDbEntity
  8
TITLEBLOCK_NOTES
  6
Continuous
 62
     3
100
AcDbLine
 10
19.50764679604025
 20
-10.71213561910473
 30
0.0
 11
19.90118303952715
 21
-10.71213561910473
 31
0.0
  0
LINE
  5
A06
330
CA0
100
AcDbEntity
  8
TITLEBLOCK_NOTES
  6
Continuous
 62
     3
100
AcDbLine
 10
18.22832822122027
 20
-10.76511829326304
 30
0.0
 11
19.89068549436823
 21
-10.73610174170952
 31
0.0
  0
LINE
  5
A07
330
CA0
100
AcDbEntity
  8
TITLEBLOCK_NOTES
  6
Continuous
 62
     3
100
AcDbLine
 10
19.16517718314159
 20
-9.657626224493318
 30
0.0
 11
19.5246690222138
 21
-10.68816949649988
 31
0.0
  0
LINE
  5
A08
330
CA0
100
AcDbEntity
  8
TITLEBLOCK_NOTES
  6
Continuous
 62
     3
100
AcDbLine
 10
19.37604713918869
 20
-8.55518458467232
 30
0.0
 11
18.7817192214647
 21
-8.55518458467232
 31
0.0
  0
LINE
  5
A09
330
CA0
100
AcDbEntity
  8
TITLEBLOCK_NOTES
  6
Continuous
 62
     3
100
AcDbLine
 10
18.80568534406956
 20
-8.579150707277106
 30
0.0
 11
19.35690616398015
 21
-8.579150707277106
 31
0.0
  0
LINE
  5
A0A
330
CA0
100
AcDbEntity
  8
TITLEBLOCK_NOTES
  6
Continuous
 62
     3
100
AcDbLine
 10
18.75775309885985
 20
-8.531218462067469
 30
0.0
 11
19.39518811439711
 21
-8.531218462067469
 31
0.0
  0
LINE
  5
A0B
330
CA0
100
AcDbEntity
  8
TITLEBLOCK_NOTES
  6
Continuous
 62
     3
100
AcDbLine
 10
18.22832822122027
 20
-8.806357122865373
 30
0.0
 11
18.75775309885985
 21
-8.806357122865373
 31
0.0
  0
LINE
  5
A0C
330
CA0
100
AcDbEntity
  8
TITLEBLOCK_NOTES
  6
Continuous
 62
     3
100
AcDbLine
 10
18.22832822122027
 20
-8.78239100026059
 30
0.0
 11
18.75775309885985
 21
-8.78239100026059
 31
0.0
  0
LINE
  5
A0D
330
CA0
100
AcDbEntity
  8
TITLEBLOCK_NOTES
  6
Continuous
 62
     3
100
AcDbLine
 10
18.22832822122027
 20
-8.758424877655734
 30
0.0
 11
18.75775309885985
 21
-8.758424877655734
 31
0.0
  0
LINE
  5
A0E
330
CA0
100
AcDbEntity
  8
TITLEBLOCK_NOTES
  6
Continuous
 62
     3
100
AcDbLine
 10
18.22832822122027
 20
-8.830323245470166
 30
0.0
 11
18.75775309885985
 21
-8.830323245470166
 31
0.0
  0
LINE
  5
A0F
330
CA0
100
AcDbEntity
  8
TITLEBLOCK_NOTES
  6
Continuous
 62
     3
100
AcDbLine
 10
18.57763196570853
 20
-10.00975840283913
 30
0.0
 11
18.75775309885985
 21
-10.00661438307913
 31
0.0
  0
LINE
  5
A10
330
CA0
100
AcDbEntity
  8
TITLEBLOCK_NOTES
  6
Continuous
 62
     3
100
AcDbLine
 10
19.21310942835123
 20
-10.44111577613769
 30
0.0
 11
19.38666576119889
 21
-10.43808636237596
 31
0.0
  0
LINE
  5
A11
330
CA0
100
AcDbEntity
  8
TITLEBLOCK_NOTES
  6
Continuous
 62
     3
100
AcDbLine
 10
19.21310942835123
 20
-10.4219399541869
 30
0.0
 11
19.38001703153367
 21
-10.41902658439076
 31
0.0
  0
LINE
  5
A12
330
CA0
100
AcDbEntity
  8
TITLEBLOCK_NOTES
  6
Continuous
 62
     3
100
AcDbLine
 10
19.21310942835123
 20
-10.40276418016829
 30
0.0
 11
19.37336825393628
 21
-10.39996680640565
 31
0.0
  0
LINE
  5
A13
330
CA0
100
AcDbEntity
  8
TITLEBLOCK_NOTES
  6
Continuous
 62
     3
100
AcDbLine
 10
19.21310942835123
 20
-10.3835883582175
 30
0.0
 11
19.36671952427085
 21
-10.38090707635272
 31
0.0
  0
LINE
  5
A14
330
CA0
100
AcDbEntity
  8
TITLEBLOCK_NOTES
  6
Continuous
 62
     3
100
AcDbLine
 10
19.21310942835123
 20
-10.36441253626672
 30
0.0
 11
19.3600707466734
 21
-10.3618472983676
 31
0.0
  0
LINE
  5
A15
330
CA0
100
AcDbEntity
  8
TITLEBLOCK_NOTES
  6
Continuous
 62
     3
100
AcDbLine
 10
19.21310942835123
 20
-10.34523671431593
 30
0.0
 11
19.3534220170081
 21
-10.34278752038242
 31
0.0
  0
LINE
  5
A16
330
CA0
100
AcDbEntity
  8
TITLEBLOCK_NOTES
  6
Continuous
 62
     3
100
AcDbLine
 10
19.21310942835123
 20
-10.53699488589169
 30
0.0
 11
19.41990955332194
 21
-10.53338515643717
 31
0.0
  0
LINE
  5
A17
330
CA0
100
AcDbEntity
  8
TITLEBLOCK_NOTES
  6
Continuous
 62
     3
100
AcDbLine
 10
19.21310942835123
 20
-10.5178190639409
 30
0.0
 11
19.41326077572454
 21
-10.5143254263843
 31
0.0
  0
LINE
  5
A18
330
CA0
100
AcDbEntity
  8
TITLEBLOCK_NOTES
  6
Continuous
 62
     3
100
AcDbLine
 10
19.21310942835123
 20
-10.49864324199005
 30
0.0
 11
19.40661204605919
 21
-10.49526564839912
 31
0.0
  0
LINE
  5
A19
330
CA0
100
AcDbEntity
  8
TITLEBLOCK_NOTES
  6
Continuous
 62
     3
100
AcDbLine
 10
19.21310942835123
 20
-10.47946742003926
 30
0.0
 11
19.39996326846177
 21
-10.47620587041401
 31
0.0
  0
LINE
  5
A1A
330
CA0
100
AcDbEntity
  8
TITLEBLOCK_NOTES
  6
Continuous
 62
     3
100
AcDbLine
 10
19.21310942835123
 20
-10.46029159808846
 30
0.0
 11
19.39331453879643
 21
-10.45714614036107
 31
0.0
  0
LINE
  5
A1B
330
CA0
100
AcDbEntity
  8
TITLEBLOCK_NOTES
  6
Continuous
 62
     3
100
AcDbLine
 10
19.21310942835123
 20
-10.57534652979326
 30
0.0
 11
19.43320706058482
 21
-10.57150471240747
 31
0.0
  0
LINE
  5
A1C
330
CA0
100
AcDbEntity
  8
TITLEBLOCK_NOTES
  6
Continuous
 62
     3
100
AcDbLine
 10
19.21310942835123
 20
-10.55617070784247
 30
0.0
 11
19.42655828298736
 21
-10.55244493442235
 31
0.0
  0
LINE
  5
A1D
330
CA0
100
AcDbEntity
  8
TITLEBLOCK_NOTES
  6
Continuous
 62
     3
100
AcDbLine
 10
19.21310942835123
 20
-10.32606089236508
 30
0.0
 11
19.34677323941051
 21
-10.32372779032955
 31
0.0
  0
LINE
  5
A1E
330
CA0
100
AcDbEntity
  8
TITLEBLOCK_NOTES
  6
Continuous
 62
     3
100
AcDbLine
 10
19.21310942835123
 20
-10.30688507041429
 30
0.0
 11
19.34012450974535
 21
-10.30466801234437
 31
0.0
  0
LINE
  5
A1F
330
CA0
100
AcDbEntity
  8
TITLEBLOCK_NOTES
  6
Continuous
 62
     3
100
AcDbLine
 10
19.21310942835123
 20
-10.2877092484635
 30
0.0
 11
19.33347573214776
 21
-10.28560823435926
 31
0.0
  0
LINE
  5
A20
330
CA0
100
AcDbEntity
  8
TITLEBLOCK_NOTES
  6
Continuous
 62
     3
100
AcDbLine
 10
19.21310942835123
 20
-10.2685334265127
 30
0.0
 11
19.32682700248253
 21
-10.26654845637406
 31
0.0
  0
LINE
  5
A21
330
CA0
100
AcDbEntity
  8
TITLEBLOCK_NOTES
  6
Continuous
 62
     3
100
AcDbLine
 10
19.21310942835123
 20
-10.24935760456193
 30
0.0
 11
19.32017822488494
 21
-10.2474887263212
 31
0.0
  0
LINE
  5
A22
330
CA0
100
AcDbEntity
  8
TITLEBLOCK_NOTES
  6
Continuous
 62
     3
100
AcDbLine
 10
19.21310942835123
 20
-10.23018178261107
 30
0.0
 11
19.31352944728735
 21
-10.22842894833602
 31
0.0
  0
LINE
  5
A23
330
CA0
100
AcDbEntity
  8
TITLEBLOCK_NOTES
  6
Continuous
 62
     3
100
AcDbLine
 10
19.21310942835123
 20
-10.21100596066029
 30
0.0
 11
19.30688071762219
 21
-10.2093691703509
 31
0.0
  0
LINE
  5
A24
330
CA0
100
AcDbEntity
  8
TITLEBLOCK_NOTES
  6
Continuous
 62
     3
100
AcDbLine
 10
19.21310942835123
 20
-10.1918301387095
 30
0.0
 11
19.3002319400248
 21
-10.19030944029797
 31
0.0
  0
LINE
  5
A25
330
CA0
100
AcDbEntity
  8
TITLEBLOCK_NOTES
  6
Continuous
 62
     3
100
AcDbLine
 10
19.21310942835123
 20
-10.17265431675871
 30
0.0
 11
19.29358321035944
 21
-10.17124966231285
 31
0.0
  0
LINE
  5
A26
330
CA0
100
AcDbEntity
  8
TITLEBLOCK_NOTES
  6
Continuous
 62
     3
100
AcDbLine
 10
19.21310942835123
 20
-10.07677525493694
 30
0.0
 11
19.26033941823634
 21
-10.07595082031932
 31
0.0
  0
LINE
  5
A27
330
CA0
100
AcDbEntity
  8
TITLEBLOCK_NOTES
  6
Continuous
 62
     3
100
AcDbLine
 10
19.21310942835123
 20
-10.05759943298617
 30
0.0
 11
19.25369068857105
 21
-10.05689109026638
 31
0.0
  0
LINE
  5
A28
330
CA0
100
AcDbEntity
  8
TITLEBLOCK_NOTES
  6
Continuous
 62
     3
100
AcDbLine
 10
19.21310942835123
 20
-10.0384236110353
 30
0.0
 11
19.24704191097352
 21
-10.03783131228127
 31
0.0
  0
LINE
  5
A29
330
CA0
100
AcDbEntity
  8
TITLEBLOCK_NOTES
  6
Continuous
 62
     3
100
AcDbLine
 10
19.21310942835123
 20
-10.01924778908453
 30
0.0
 11
19.24039318130829
 21
-10.01877153429608
 31
0.0
  0
LINE
  5
A2A
330
CA0
100
AcDbEntity
  8
TITLEBLOCK_NOTES
  6
Continuous
 62
     3
100
AcDbLine
 10
19.21310942835123
 20
-10.00007196713374
 30
0.0
 11
19.2337444037107
 21
-9.999711804243219
 31
0.0
  0
LINE
  5
A2B
330
CA0
100
AcDbEntity
  8
TITLEBLOCK_NOTES
  6
Continuous
 62
     3
100
AcDbLine
 10
19.21310942835123
 20
-9.980896145182951
 30
0.0
 11
19.22709567404556
 21
-9.980652026258034
 31
0.0
  0
LINE
  5
A2C
330
CA0
100
AcDbEntity
  8
TITLEBLOCK_NOTES
  6
Continuous
 62
     3
100
AcDbLine
 10
19.21310942835123
 20
-9.961720323232103
 30
0.0
 11
19.22044689644795
 21
-9.961592248272921
 31
0.0
  0
LINE
  5
A2D
330
CA0
100
AcDbEntity
  8
TITLEBLOCK_NOTES
  6
Continuous
 62
     3
100
AcDbLine
 10
19.21310942835123
 20
-9.942544501281318
 30
0.0
 11
19.21379816678274
 21
-9.942532470287805
 31
0.0
  0
LINE
  5
A2E
330
CA0
100
AcDbEntity
  8
TITLEBLOCK_NOTES
  6
Continuous
 62
     3
100
AcDbLine
 10
19.21310942835123
 20
-10.13430267285707
 30
0.0
 11
19.28028570309669
 21
-10.13313010634255
 31
0.0
  0
LINE
  5
A2F
330
CA0
100
AcDbEntity
  8
TITLEBLOCK_NOTES
  6
Continuous
 62
     3
100
AcDbLine
 10
19.21310942835123
 20
-10.11512689883853
 30
0.0
 11
19.27363692549909
 21
-10.11407037628962
 31
0.0
  0
LINE
  5
A30
330
CA0
100
AcDbEntity
  8
TITLEBLOCK_NOTES
  6
Continuous
 62
     3
100
AcDbLine
 10
19.21310942835123
 20
-10.09595107688774
 30
0.0
 11
19.26698819583387
 21
-10.0950105983045
 31
0.0
  0
LINE
  5
A31
330
CA0
100
AcDbEntity
  8
TITLEBLOCK_NOTES
  6
Continuous
 62
     3
100
AcDbLine
 10
19.21310942835123
 20
-10.15347849480792
 30
0.0
 11
19.28693443276184
 21
-10.15218988432767
 31
0.0
  0
LINE
  5
A32
330
CA0
100
AcDbEntity
  8
TITLEBLOCK_NOTES
  6
Continuous
 62
     3
100
AcDbLine
 10
18.22832822122027
 20
-9.99667970627579
 30
0.0
 11
18.75775309885985
 21
-9.987438561128339
 31
0.0
  0
LINE
  5
A33
330
CA0
100
AcDbEntity
  8
TITLEBLOCK_NOTES
  6
Continuous
 62
     3
100
AcDbLine
 10
18.22832822122027
 20
-10.00975840283913
 30
0.0
 11
18.75775309885985
 21
-10.00975840283913
 31
0.0
  0
LINE
  5
A34
330
CA0
100
AcDbEntity
  8
TITLEBLOCK_NOTES
  6
Continuous
 62
     3
100
AcDbLine
 10
18.22832822122027
 20
-9.977503884324935
 30
0.0
 11
18.75775309885985
 21
-9.968262739177488
 31
0.0
  0
LINE
  5
A35
330
CA0
100
AcDbEntity
  8
TITLEBLOCK_NOTES
  6
Continuous
 62
     3
100
AcDbLine
 10
18.22832822122027
 20
-9.95832806237415
 30
0.0
 11
18.75775309885985
 21
-9.949086917226701
 31
0.0
  0
LINE
  5
A36
330
CA0
100
AcDbEntity
  8
TITLEBLOCK_NOTES
  6
Continuous
 62
     3
100
AcDbLine
 10
18.22832822122027
 20
-9.939152240423359
 30
0.0
 11
18.75775309885985
 21
-9.929911095275912
 31
0.0
  0
LINE
  5
A37
330
CA0
100
AcDbEntity
  8
TITLEBLOCK_NOTES
  6
Continuous
 62
     3
100
AcDbLine
 10
18.22832822122027
 20
-9.919976418472575
 30
0.0
 11
18.75775309885985
 21
-9.910735273325126
 31
0.0
  0
LINE
  5
A38
330
CA0
100
AcDbEntity
  8
TITLEBLOCK_NOTES
  6
Continuous
 62
     3
100
AcDbLine
 10
18.22832822122027
 20
-9.900800596521719
 30
0.0
 11
18.75775309885985
 21
-9.891559451374339
 31
0.0
  0
LINE
  5
A39
330
CA0
100
AcDbEntity
  8
TITLEBLOCK_NOTES
  6
Continuous
 62
     3
100
AcDbLine
 10
18.22832822122027
 20
-9.881624774570934
 30
0.0
 11
18.75775309885985
 21
-9.87238362942349
 31
0.0
  0
LINE
  5
A3A
330
CA0
100
AcDbEntity
  8
TITLEBLOCK_NOTES
  6
Continuous
 62
     3
100
AcDbLine
 10
18.22832822122027
 20
-9.862448952620146
 30
0.0
 11
18.75775309885985
 21
-9.853207807472703
 31
0.0
  0
LINE
  5
A3B
330
CA0
100
AcDbEntity
  8
TITLEBLOCK_NOTES
  6
Continuous
 62
     3
100
AcDbLine
 10
18.22832822122027
 20
-9.843273178601538
 30
0.0
 11
18.75775309885985
 21
-9.83403203345416
 31
0.0
  0
LINE
  5
A3C
330
CA0
100
AcDbEntity
  8
TITLEBLOCK_NOTES
  6
Continuous
 62
     3
100
AcDbLine
 10
18.22832822122027
 20
-9.824097356650819
 30
0.0
 11
18.75775309885985
 21
-9.814856211503306
 31
0.0
  0
LINE
  5
A3D
330
CA0
100
AcDbEntity
  8
TITLEBLOCK_NOTES
  6
Continuous
 62
     3
100
AcDbLine
 10
18.22832822122027
 20
-9.804921534699966
 30
0.0
 11
18.75775309885985
 21
-9.79568038955252
 31
0.0
  0
LINE
  5
A3E
330
CA0
100
AcDbEntity
  8
TITLEBLOCK_NOTES
  6
Continuous
 62
     3
100
AcDbLine
 10
18.22832822122027
 20
-9.78574571274918
 30
0.0
 11
18.75775309885985
 21
-9.776504567601731
 31
0.0
  0
LINE
  5
A3F
330
CA0
100
AcDbEntity
  8
TITLEBLOCK_NOTES
  6
Continuous
 62
     3
100
AcDbLine
 10
18.22832822122027
 20
-9.76656989079839
 30
0.0
 11
18.75775309885985
 21
-9.757328745650944
 31
0.0
  0
LINE
  5
A40
330
CA0
100
AcDbEntity
  8
TITLEBLOCK_NOTES
  6
Continuous
 62
     3
100
AcDbLine
 10
18.22832822122027
 20
-9.747394068847603
 30
0.0
 11
18.75775309885985
 21
-9.738152923700159
 31
0.0
  0
LINE
  5
A41
330
CA0
100
AcDbEntity
  8
TITLEBLOCK_NOTES
  6
Continuous
 62
     3
100
AcDbLine
 10
18.22832822122027
 20
-9.728218246896815
 30
0.0
 11
18.75775309885985
 21
-9.718977101749372
 31
0.0
  0
LINE
  5
A42
330
CA0
100
AcDbEntity
  8
TITLEBLOCK_NOTES
  6
Continuous
 62
     3
100
AcDbLine
 10
18.22832822122027
 20
-9.709042424945963
 30
0.0
 11
18.75775309885985
 21
-9.699801279798519
 31
0.0
  0
LINE
  5
A43
330
CA0
100
AcDbEntity
  8
TITLEBLOCK_NOTES
  6
Continuous
 62
     3
100
AcDbLine
 10
18.22832822122027
 20
-9.689866602995181
 30
0.0
 11
18.75775309885985
 21
-9.68062545784773
 31
0.0
  0
LINE
  5
A44
330
CA0
100
AcDbEntity
  8
TITLEBLOCK_NOTES
  6
Continuous
 62
     3
100
AcDbLine
 10
18.22832822122027
 20
-9.670690781044386
 30
0.0
 11
18.75775309885985
 21
-9.661449635896946
 31
0.0
  0
LINE
  5
A45
330
CA0
100
AcDbEntity
  8
TITLEBLOCK_NOTES
  6
Continuous
 62
     3
100
AcDbLine
 10
18.22832822122027
 20
-9.651514959093603
 30
0.0
 11
18.75775309885985
 21
-9.642273813946156
 31
0.0
  0
LINE
  5
A46
330
CA0
100
AcDbEntity
  8
TITLEBLOCK_NOTES
  6
Continuous
 62
     3
100
AcDbLine
 10
18.22832822122027
 20
-9.63233913714275
 30
0.0
 11
18.75775309885985
 21
-9.63233913714275
 31
0.0
  0
LINE
  5
A47
330
CA0
100
AcDbEntity
  8
TITLEBLOCK_NOTES
  6
Continuous
 62
     3
100
AcDbLine
 10
18.22832822122027
 20
-10.15149213463419
 30
0.0
 11
18.75775309885985
 21
-10.14225098948674
 31
0.0
  0
LINE
  5
A48
330
CA0
100
AcDbEntity
  8
TITLEBLOCK_NOTES
  6
Continuous
 62
     3
100
AcDbLine
 10
18.22832822122027
 20
-10.13231631268334
 30
0.0
 11
18.75775309885985
 21
-10.12307516753596
 31
0.0
  0
LINE
  5
A49
330
CA0
100
AcDbEntity
  8
TITLEBLOCK_NOTES
  6
Continuous
 62
     3
100
AcDbLine
 10
18.22832822122027
 20
-10.11314049073255
 30
0.0
 11
18.74549960383012
 21
-10.10411321926326
 31
0.0
  0
LINE
  5
A4A
330
CA0
100
AcDbEntity
  8
TITLEBLOCK_NOTES
  6
Continuous
 62
     3
100
AcDbLine
 10
18.22832822122027
 20
-10.10411321926326
 30
0.0
 11
18.75775309885985
 21
-10.10411321926326
 31
0.0
  0
LINE
  5
A4B
330
CA0
100
AcDbEntity
  8
TITLEBLOCK_NOTES
  6
Continuous
 62
     3
100
AcDbLine
 10
18.22832822122027
 20
-9.474679677215648
 30
0.0
 11
18.75775309885985
 21
-9.465438532068199
 31
0.0
  0
LINE
  5
A4C
330
CA0
100
AcDbEntity
  8
TITLEBLOCK_NOTES
  6
Continuous
 62
     3
100
AcDbLine
 10
18.22832822122027
 20
-9.532207143068076
 30
0.0
 11
18.75775309885985
 21
-9.52296599792063
 31
0.0
  0
LINE
  5
A4D
330
CA0
100
AcDbEntity
  8
TITLEBLOCK_NOTES
  6
Continuous
 62
     3
100
AcDbLine
 10
18.22832822122027
 20
-9.513031321117225
 30
0.0
 11
18.75775309885985
 21
-9.503790175969843
 31
0.0
  0
LINE
  5
A4E
330
CA0
100
AcDbEntity
  8
TITLEBLOCK_NOTES
  6
Continuous
 62
     3
100
AcDbLine
 10
18.22832822122027
 20
-9.493855499166434
 30
0.0
 11
18.75775309885985
 21
-9.484614354018988
 31
0.0
  0
LINE
  5
A4F
330
CA0
100
AcDbEntity
  8
TITLEBLOCK_NOTES
  6
Continuous
 62
     3
100
AcDbLine
 10
18.22832822122027
 20
-9.537984320718685
 30
0.0
 11
18.75775309885985
 21
-9.537984320718685
 31
0.0
  0
LINE
  5
A50
330
CA0
100
AcDbEntity
  8
TITLEBLOCK_NOTES
  6
Continuous
 62
     3
100
AcDbLine
 10
18.22832822122027
 20
-9.161319939952059
 30
0.0
 11
18.75775309885985
 21
-9.161319939952059
 31
0.0
  0
LINE
  5
A51
330
CA0
100
AcDbEntity
  8
TITLEBLOCK_NOTES
  6
Continuous
 62
     3
100
AcDbLine
 10
18.22832822122027
 20
-9.183776388561758
 30
0.0
 11
18.75775309885985
 21
-9.183776388561758
 31
0.0
  0
LINE
  5
A52
330
CA0
100
AcDbEntity
  8
TITLEBLOCK_NOTES
  6
Continuous
 62
     3
100
AcDbLine
 10
18.22832822122027
 20
-9.207742511166614
 30
0.0
 11
18.75775309885985
 21
-9.207742511166614
 31
0.0
  0
LINE
  5
A53
330
CA0
100
AcDbEntity
  8
TITLEBLOCK_NOTES
  6
Continuous
 62
     3
100
AcDbLine
 10
18.22832822122027
 20
-9.137353817347271
 30
0.0
 11
18.75775309885985
 21
-9.137353817347271
 31
0.0
  0
LINE
  5
A54
330
CA0
100
AcDbEntity
  8
TITLEBLOCK_NOTES
  6
Continuous
 62
     3
100
AcDbLine
 10
18.22832822122027
 20
-9.340448923560003
 30
0.0
 11
18.75775309885985
 21
-9.331207778412624
 31
0.0
  0
LINE
  5
A55
330
CA0
100
AcDbEntity
  8
TITLEBLOCK_NOTES
  6
Continuous
 62
     3
100
AcDbLine
 10
18.22832822122027
 20
-9.321273101609216
 30
0.0
 11
18.75775309885985
 21
-9.312031956461835
 31
0.0
  0
LINE
  5
A56
330
CA0
100
AcDbEntity
  8
TITLEBLOCK_NOTES
  6
Continuous
 62
     3
100
AcDbLine
 10
18.22832822122027
 20
-9.302097327590674
 30
0.0
 11
18.75775309885985
 21
-9.302097327590674
 31
0.0
  0
LINE
  5
A57
330
CA0
100
AcDbEntity
  8
TITLEBLOCK_NOTES
  6
Continuous
 62
     3
100
AcDbLine
 10
18.22832822122027
 20
-9.455503855264863
 30
0.0
 11
18.75775309885985
 21
-9.446262710117414
 31
0.0
  0
LINE
  5
A58
330
CA0
100
AcDbEntity
  8
TITLEBLOCK_NOTES
  6
Continuous
 62
     3
100
AcDbLine
 10
18.22832822122027
 20
-9.436328033314076
 30
0.0
 11
18.75775309885985
 21
-9.427086888166627
 31
0.0
  0
LINE
  5
A59
330
CA0
100
AcDbEntity
  8
TITLEBLOCK_NOTES
  6
Continuous
 62
     3
100
AcDbLine
 10
18.22832822122027
 20
-9.417152211363287
 30
0.0
 11
18.75775309885985
 21
-9.40791106621584
 31
0.0
  0
LINE
  5
A5A
330
CA0
100
AcDbEntity
  8
TITLEBLOCK_NOTES
  6
Continuous
 62
     3
100
AcDbLine
 10
18.22832822122027
 20
-9.397976389412432
 30
0.0
 11
18.75775309885985
 21
-9.388735244264983
 31
0.0
  0
LINE
  5
A5B
330
CA0
100
AcDbEntity
  8
TITLEBLOCK_NOTES
  6
Continuous
 62
     3
100
AcDbLine
 10
18.22832822122027
 20
-9.378800567461647
 30
0.0
 11
18.75775309885985
 21
-9.369559422314198
 31
0.0
  0
LINE
  5
A5C
330
CA0
100
AcDbEntity
  8
TITLEBLOCK_NOTES
  6
Continuous
 62
     3
100
AcDbLine
 10
18.22832822122027
 20
-9.35962474551086
 30
0.0
 11
18.75775309885985
 21
-9.350383600363411
 31
0.0
  0
LINE
  5
A5D
330
CA0
100
AcDbEntity
  8
TITLEBLOCK_NOTES
  6
Continuous
 62
     3
100
AcDbLine
 10
18.22832822122027
 20
-9.113387694742483
 30
0.0
 11
18.75775309885985
 21
-9.113387694742483
 31
0.0
  0
LINE
  5
A5E
330
CA0
100
AcDbEntity
  8
TITLEBLOCK_NOTES
  6
Continuous
 62
     3
100
AcDbLine
 10
18.22832822122027
 20
-10.55418429973649
 30
0.0
 11
18.75775309885985
 21
-10.54494315458905
 31
0.0
  0
LINE
  5
A5F
330
CA0
100
AcDbEntity
  8
TITLEBLOCK_NOTES
  6
Continuous
 62
     3
100
AcDbLine
 10
18.22832822122027
 20
-10.53500847778571
 30
0.0
 11
18.75775309885985
 21
-10.52576733263826
 31
0.0
  0
LINE
  5
A60
330
CA0
100
AcDbEntity
  8
TITLEBLOCK_NOTES
  6
Continuous
 62
     3
100
AcDbLine
 10
18.22832822122027
 20
-10.51583265583492
 30
0.0
 11
18.75775309885985
 21
-10.50659151068747
 31
0.0
  0
LINE
  5
A61
330
CA0
100
AcDbEntity
  8
TITLEBLOCK_NOTES
  6
Continuous
 62
     3
100
AcDbLine
 10
18.22832822122027
 20
-10.49665683388407
 30
0.0
 11
18.75775309885985
 21
-10.48741568873668
 31
0.0
  0
LINE
  5
A62
330
CA0
100
AcDbEntity
  8
TITLEBLOCK_NOTES
  6
Continuous
 62
     3
100
AcDbLine
 10
18.22832822122027
 20
-10.47748101193328
 30
0.0
 11
18.75775309885985
 21
-10.4682398667859
 31
0.0
  0
LINE
  5
A63
330
CA0
100
AcDbEntity
  8
TITLEBLOCK_NOTES
  6
Continuous
 62
     3
100
AcDbLine
 10
18.22832822122027
 20
-10.45830523791474
 30
0.0
 11
18.75775309885985
 21
-10.44906409276729
 31
0.0
  0
LINE
  5
A64
330
CA0
100
AcDbEntity
  8
TITLEBLOCK_NOTES
  6
Continuous
 62
     3
100
AcDbLine
 10
18.22832822122027
 20
-10.43912941596395
 30
0.0
 11
18.75775309885985
 21
-10.4298882708165
 31
0.0
  0
LINE
  5
A65
330
CA0
100
AcDbEntity
  8
TITLEBLOCK_NOTES
  6
Continuous
 62
     3
100
AcDbLine
 10
18.22832822122027
 20
-10.4199535940131
 30
0.0
 11
18.75775309885985
 21
-10.41071244886571
 31
0.0
  0
LINE
  5
A66
330
CA0
100
AcDbEntity
  8
TITLEBLOCK_NOTES
  6
Continuous
 62
     3
100
AcDbLine
 10
18.22832822122027
 20
-10.40077777206231
 30
0.0
 11
18.75775309885985
 21
-10.39153662691493
 31
0.0
  0
LINE
  5
A67
330
CA0
100
AcDbEntity
  8
TITLEBLOCK_NOTES
  6
Continuous
 62
     3
100
AcDbLine
 10
18.22832822122027
 20
-10.38160195011152
 30
0.0
 11
18.75775309885985
 21
-10.37236080496406
 31
0.0
  0
LINE
  5
A68
330
CA0
100
AcDbEntity
  8
TITLEBLOCK_NOTES
  6
Continuous
 62
     3
100
AcDbLine
 10
18.22832822122027
 20
-10.36242612816073
 30
0.0
 11
18.75775309885985
 21
-10.35318498301329
 31
0.0
  0
LINE
  5
A69
330
CA0
100
AcDbEntity
  8
TITLEBLOCK_NOTES
  6
Continuous
 62
     3
100
AcDbLine
 10
18.22832822122027
 20
-10.34325030620989
 30
0.0
 11
18.75775309885985
 21
-10.3340091610625
 31
0.0
  0
LINE
  5
A6A
330
CA0
100
AcDbEntity
  8
TITLEBLOCK_NOTES
  6
Continuous
 62
     3
100
AcDbLine
 10
18.22832822122027
 20
-10.57336012168728
 30
0.0
 11
18.75775309885985
 21
-10.5641189765399
 31
0.0
  0
LINE
  5
A6B
330
CA0
100
AcDbEntity
  8
TITLEBLOCK_NOTES
  6
Continuous
 62
     3
100
AcDbLine
 10
18.22832822122027
 20
-10.32407448425916
 30
0.0
 11
18.75775309885985
 21
-10.31483333911171
 31
0.0
  0
LINE
  5
A6C
330
CA0
100
AcDbEntity
  8
TITLEBLOCK_NOTES
  6
Continuous
 62
     3
100
AcDbLine
 10
18.22832822122027
 20
-10.30489866230831
 30
0.0
 11
18.75775309885985
 21
-10.29565751716092
 31
0.0
  0
LINE
  5
A6D
330
CA0
100
AcDbEntity
  8
TITLEBLOCK_NOTES
  6
Continuous
 62
     3
100
AcDbLine
 10
18.22832822122027
 20
-10.28572284035752
 30
0.0
 11
18.75775309885985
 21
-10.27648169521008
 31
0.0
  0
LINE
  5
A6E
330
CA0
100
AcDbEntity
  8
TITLEBLOCK_NOTES
  6
Continuous
 62
     3
100
AcDbLine
 10
18.22832822122027
 20
-10.26654701840674
 30
0.0
 11
18.75775309885985
 21
-10.25730587325929
 31
0.0
  0
LINE
  5
A6F
330
CA0
100
AcDbEntity
  8
TITLEBLOCK_NOTES
  6
Continuous
 62
     3
100
AcDbLine
 10
18.22832822122027
 20
-10.24737119645595
 30
0.0
 11
18.75775309885985
 21
-10.2381300513085
 31
0.0
  0
LINE
  5
A70
330
CA0
100
AcDbEntity
  8
TITLEBLOCK_NOTES
  6
Continuous
 62
     3
100
AcDbLine
 10
18.22832822122027
 20
-10.2281953745051
 30
0.0
 11
18.75775309885985
 21
-10.21895422935772
 31
0.0
  0
LINE
  5
A71
330
CA0
100
AcDbEntity
  8
TITLEBLOCK_NOTES
  6
Continuous
 62
     3
100
AcDbLine
 10
18.22832822122027
 20
-10.20901955255431
 30
0.0
 11
18.75775309885985
 21
-10.19977840740686
 31
0.0
  0
LINE
  5
A72
330
CA0
100
AcDbEntity
  8
TITLEBLOCK_NOTES
  6
Continuous
 62
     3
100
AcDbLine
 10
18.22832822122027
 20
-10.18984373060352
 30
0.0
 11
18.75775309885985
 21
-10.18060258545607
 31
0.0
  0
LINE
  5
A73
330
CA0
100
AcDbEntity
  8
TITLEBLOCK_NOTES
  6
Continuous
 62
     3
100
AcDbLine
 10
18.22832822122027
 20
-10.17066795658498
 30
0.0
 11
18.75775309885985
 21
-10.16142681143753
 31
0.0
  0
LINE
  5
A74
330
CA0
100
AcDbEntity
  8
TITLEBLOCK_NOTES
  6
Continuous
 62
     3
100
AcDbLine
 10
19.21310942835123
 20
-10.72875305746745
 30
0.0
 11
19.4863970896359
 21
-10.72398284042417
 31
0.0
  0
LINE
  5
A75
330
CA0
100
AcDbEntity
  8
TITLEBLOCK_NOTES
  6
Continuous
 62
     3
100
AcDbLine
 10
19.21310942835123
 20
-10.70957723551666
 30
0.0
 11
19.47974835997073
 21
-10.70492306243905
 31
0.0
  0
LINE
  5
A76
330
CA0
100
AcDbEntity
  8
TITLEBLOCK_NOTES
  6
Continuous
 62
     3
100
AcDbLine
 10
19.21310942835123
 20
-10.69040141356587
 30
0.0
 11
19.47309958237314
 21
-10.68586328445387
 31
0.0
  0
LINE
  5
A77
330
CA0
100
AcDbEntity
  8
TITLEBLOCK_NOTES
  6
Continuous
 62
     3
100
AcDbLine
 10
18.7817192214647
 20
-10.71213561910473
 30
0.0
 11
19.18914330574644
 21
-10.71213561910473
 31
0.0
  0
LINE
  5
A78
330
CA0
100
AcDbEntity
  8
TITLEBLOCK_NOTES
  6
Continuous
 62
     3
100
AcDbLine
 10
18.80568534406956
 20
-10.68816949649988
 30
0.0
 11
19.16517718314159
 21
-10.68816949649988
 31
0.0
  0
LINE
  5
A79
330
CA0
100
AcDbEntity
  8
TITLEBLOCK_NOTES
  6
Continuous
 62
     3
100
AcDbLine
 10
19.21310942835123
 20
-10.67122563954726
 30
0.0
 11
19.46645085270785
 21
-10.66680350646876
 31
0.0
  0
LINE
  5
A7A
330
CA0
100
AcDbEntity
  8
TITLEBLOCK_NOTES
  6
Continuous
 62
     3
100
AcDbLine
 10
19.21310942835123
 20
-10.65204981759648
 30
0.0
 11
19.45980207511039
 21
-10.64774377641582
 31
0.0
  0
LINE
  5
A7B
330
CA0
100
AcDbEntity
  8
TITLEBLOCK_NOTES
  6
Continuous
 62
     3
100
AcDbLine
 10
19.21310942835123
 20
-10.63287399564569
 30
0.0
 11
19.45315334544509
 21
-10.62868399843071
 31
0.0
  0
LINE
  5
A7C
330
CA0
100
AcDbEntity
  8
TITLEBLOCK_NOTES
  6
Continuous
 62
     3
100
AcDbLine
 10
19.21310942835123
 20
-10.6136981736949
 30
0.0
 11
19.44650456784761
 21
-10.60962422044552
 31
0.0
  0
LINE
  5
A7D
330
CA0
100
AcDbEntity
  8
TITLEBLOCK_NOTES
  6
Continuous
 62
     3
100
AcDbLine
 10
18.75775309885985
 20
-10.73610174170952
 30
0.0
 11
19.21310942835123
 21
-10.73610174170952
 31
0.0
  0
LINE
  5
A7E
330
CA0
100
AcDbEntity
  8
TITLEBLOCK_NOTES
  6
Continuous
 62
     3
100
AcDbLine
 10
18.22832822122027
 20
-10.72676669729371
 30
0.0
 11
18.75775309885985
 21
-10.71752555214626
 31
0.0
  0
LINE
  5
A7F
330
CA0
100
AcDbEntity
  8
TITLEBLOCK_NOTES
  6
Continuous
 62
     3
100
AcDbLine
 10
18.22832822122027
 20
-10.70759087534292
 30
0.0
 11
18.75775309885985
 21
-10.69834973019548
 31
0.0
  0
LINE
  5
A80
330
CA0
100
AcDbEntity
  8
TITLEBLOCK_NOTES
  6
Continuous
 62
     3
100
AcDbLine
 10
18.22832822122027
 20
-10.68841505339213
 30
0.0
 11
18.75775309885985
 21
-10.67917390824469
 31
0.0
  0
LINE
  5
A81
330
CA0
100
AcDbEntity
  8
TITLEBLOCK_NOTES
  6
Continuous
 62
     3
100
AcDbLine
 10
18.22832822122027
 20
-10.66923923144135
 30
0.0
 11
18.75775309885985
 21
-10.6599980862939
 31
0.0
  0
LINE
  5
A82
330
CA0
100
AcDbEntity
  8
TITLEBLOCK_NOTES
  6
Continuous
 62
     3
100
AcDbLine
 10
18.22832822122027
 20
-10.6500634094905
 30
0.0
 11
18.75775309885985
 21
-10.64082226434305
 31
0.0
  0
LINE
  5
A83
330
CA0
100
AcDbEntity
  8
TITLEBLOCK_NOTES
  6
Continuous
 62
     3
100
AcDbLine
 10
18.22832822122027
 20
-10.63088758753971
 30
0.0
 11
18.75775309885985
 21
-10.62164644239226
 31
0.0
  0
LINE
  5
A84
330
CA0
100
AcDbEntity
  8
TITLEBLOCK_NOTES
  6
Continuous
 62
     3
100
AcDbLine
 10
18.22832822122027
 20
-10.61171176558892
 30
0.0
 11
18.75775309885985
 21
-10.60247062044147
 31
0.0
  0
LINE
  5
A85
330
CA0
100
AcDbEntity
  8
TITLEBLOCK_NOTES
  6
Continuous
 62
     3
100
AcDbLine
 10
18.22832822122027
 20
-10.74594247131225
 30
0.0
 11
18.79210359859268
 21
-10.73610174170952
 31
0.0
  0
LINE
  5
A86
330
CA0
100
AcDbEntity
  8
TITLEBLOCK_NOTES
  6
Continuous
 62
     3
100
AcDbLine
 10
18.7817192214647
 20
-10.71213561910473
 30
0.0
 11
18.7817192214647
 21
-8.55518458467232
 31
0.0
  0
LINE
  5
A87
330
CA0
100
AcDbEntity
  8
TITLEBLOCK_NOTES
  6
Continuous
 62
     3
100
AcDbLine
 10
18.80568534406956
 20
-10.68816949649988
 30
0.0
 11
18.80568534406956
 21
-8.579150707277106
 31
0.0
  0
LINE
  5
A88
330
CA0
100
AcDbEntity
  8
TITLEBLOCK_NOTES
  6
Continuous
 62
     3
100
AcDbLine
 10
18.75775309885985
 20
-10.73610174170952
 30
0.0
 11
18.75775309885985
 21
-8.531218462067469
 31
0.0
  0
LINE
  5
A89
330
CA0
100
AcDbEntity
  8
TITLEBLOCK_NOTES
  6
Continuous
 62
     3
100
AcDbLine
 10
18.22832822122027
 20
-10.59253594363807
 30
0.0
 11
18.75775309885985
 21
-10.58329479849063
 31
0.0
  0
LINE
  5
A8A
330
CA0
100
AcDbEntity
  8
TITLEBLOCK_NOTES
  6
Continuous
 62
     3
100
AcDbLine
 10
19.18914330574644
 20
-9.799092158834328
 30
0.0
 11
19.50764679604025
 21
-10.71213561910473
 31
0.0
  0
LINE
  5
A8B
330
CA0
100
AcDbEntity
  8
TITLEBLOCK_NOTES
  6
Continuous
 62
     3
100
AcDbLine
 10
19.49062461779894
 20
-10.73610174170952
 30
0.0
 11
19.21310942835123
 21
-9.940558093175337
 31
0.0
  0
LINE
  5
A8C
330
CA0
100
AcDbEntity
  8
TITLEBLOCK_NOTES
  6
Continuous
 62
     3
100
AcDbLine
 10
19.18914330574644
 20
-9.799092158834328
 30
0.0
 11
19.18914330574644
 21
-10.71213561910473
 31
0.0
  0
LINE
  5
A8D
330
CA0
100
AcDbEntity
  8
TITLEBLOCK_NOTES
  6
Continuous
 62
     3
100
AcDbLine
 10
19.21310942835123
 20
-10.73610174170952
 30
0.0
 11
19.21310942835123
 21
-9.940558093175337
 31
0.0
  0
LINE
  5
A8E
330
CA0
100
AcDbEntity
  8
TITLEBLOCK_NOTES
  6
Continuous
 62
     3
100
AcDbLine
 10
19.16517718314159
 20
-10.68816949649988
 30
0.0
 11
19.16517718314159
 21
-9.657626224493318
 31
0.0
  0
LINE
  5
A8F
330
CA0
100
AcDbEntity
  8
TITLEBLOCK_NOTES
  6
Continuous
 62
     3
100
AcDbLine
 10
19.21310942835123
 20
-10.59452235174411
 30
0.0
 11
19.43985579025016
 21
-10.59056449039265
 31
0.0
  0
LINE
  5
A90
330
CA0
100
AcDbEntity
  8
TITLEBLOCK_NOTES
  6
Continuous
 62
     3
100
AcDbLine
 10
20.03278274431088
 20
-8.55518458467232
 30
0.0
 11
20.62711066203487
 21
-8.55518458467232
 31
0.0
  0
LINE
  5
A91
330
CA0
100
AcDbEntity
  8
TITLEBLOCK_NOTES
  6
Continuous
 62
     3
100
AcDbLine
 10
20.65107678463959
 20
-8.531218462067469
 30
0.0
 11
20.01364176910239
 21
-8.531218462067469
 31
0.0
  0
LINE
  5
A92
330
CA0
100
AcDbEntity
  8
TITLEBLOCK_NOTES
  6
Continuous
 62
     3
100
AcDbLine
 10
20.60314453943002
 20
-8.579150707277106
 30
0.0
 11
20.05192371951942
 21
-8.579150707277106
 31
0.0
  0
LINE
  5
A93
330
CA0
100
AcDbEntity
  8
TITLEBLOCK_NOTES
  6
Continuous
 62
     3
100
AcDbLine
 10
20.02605732305334
 20
-10.42692572253682
 30
0.0
 11
20.19572045514835
 21
-10.42396427669877
 31
0.0
  0
LINE
  5
A94
330
CA0
100
AcDbEntity
  8
TITLEBLOCK_NOTES
  6
Continuous
 62
     3
100
AcDbLine
 10
20.03278753753545
 20
-10.40763241865303
 30
0.0
 11
20.19572045514835
 21
-10.40478845474798
 31
0.0
  0
LINE
  5
A95
330
CA0
100
AcDbEntity
  8
TITLEBLOCK_NOTES
  6
Continuous
 62
     3
100
AcDbLine
 10
20.03951775201752
 20
-10.38833916270148
 30
0.0
 11
20.19572045514835
 21
-10.38561263279719
 31
0.0
  0
LINE
  5
A96
330
CA0
100
AcDbEntity
  8
TITLEBLOCK_NOTES
  6
Continuous
 62
     3
100
AcDbLine
 10
20.04624796649969
 20
-10.36904585881762
 30
0.0
 11
20.19572045514835
 21
-10.36643681084641
 31
0.0
  0
LINE
  5
A97
330
CA0
100
AcDbEntity
  8
TITLEBLOCK_NOTES
  6
Continuous
 62
     3
100
AcDbLine
 10
20.05297818098182
 20
-10.34975255493382
 30
0.0
 11
20.19572045514835
 21
-10.34726098889562
 31
0.0
  0
LINE
  5
A98
330
CA0
100
AcDbEntity
  8
TITLEBLOCK_NOTES
  6
Continuous
 62
     3
100
AcDbLine
 10
20.00586663167474
 20
-10.48480563418827
 30
0.0
 11
20.19572045514835
 21
-10.48149169461894
 31
0.0
  0
LINE
  5
A99
330
CA0
100
AcDbEntity
  8
TITLEBLOCK_NOTES
  6
Continuous
 62
     3
100
AcDbLine
 10
20.01259689408911
 20
-10.46551233030448
 30
0.0
 11
20.19572045514835
 21
-10.46231587266816
 31
0.0
  0
LINE
  5
A9A
330
CA0
100
AcDbEntity
  8
TITLEBLOCK_NOTES
  6
Continuous
 62
     3
100
AcDbLine
 10
19.98567598822831
 20
-10.54268549790748
 30
0.0
 11
20.19572045514835
 21
-10.53901916047138
 31
0.0
  0
LINE
  5
A9B
330
CA0
100
AcDbEntity
  8
TITLEBLOCK_NOTES
  6
Continuous
 62
     3
100
AcDbLine
 10
19.99240620271035
 20
-10.52339219402361
 30
0.0
 11
20.19572045514835
 21
-10.51984333852058
 31
0.0
  0
LINE
  5
A9C
330
CA0
100
AcDbEntity
  8
TITLEBLOCK_NOTES
  6
Continuous
 62
     3
100
AcDbLine
 10
19.99913641719262
 20
-10.50409893807207
 30
0.0
 11
20.19572045514835
 21
-10.50066751656974
 31
0.0
  0
LINE
  5
A9D
330
CA0
100
AcDbEntity
  8
TITLEBLOCK_NOTES
  6
Continuous
 62
     3
100
AcDbLine
 10
20.01932710857115
 20
-10.44621902642062
 30
0.0
 11
20.19572045514835
 21
-10.44314005071738
 31
0.0
  0
LINE
  5
A9E
330
CA0
100
AcDbEntity
  8
TITLEBLOCK_NOTES
  6
Continuous
 62
     3
100
AcDbLine
 10
19.97221555926401
 20
-10.58127210567507
 30
0.0
 11
20.19572045514835
 21
-10.57737080437295
 31
0.0
  0
LINE
  5
A9F
330
CA0
100
AcDbEntity
  8
TITLEBLOCK_NOTES
  6
Continuous
 62
     3
100
AcDbLine
 10
19.97894577374626
 20
-10.56197880179127
 30
0.0
 11
20.19572045514835
 21
-10.55819498242216
 31
0.0
  0
LINE
  5
AA0
330
CA0
100
AcDbEntity
  8
TITLEBLOCK_NOTES
  6
Continuous
 62
     3
100
AcDbLine
 10
20.05970839546387
 20
-10.33045925105003
 30
0.0
 11
20.19572045514835
 21
-10.32808516694482
 31
0.0
  0
LINE
  5
AA1
330
CA0
100
AcDbEntity
  8
TITLEBLOCK_NOTES
  6
Continuous
 62
     3
100
AcDbLine
 10
20.06643860994606
 20
-10.31116594716623
 30
0.0
 11
20.19572045514835
 21
-10.30890934499398
 31
0.0
  0
LINE
  5
AA2
330
CA0
100
AcDbEntity
  8
TITLEBLOCK_NOTES
  6
Continuous
 62
     3
100
AcDbLine
 10
20.07316882442818
 20
-10.29187269121468
 30
0.0
 11
20.19572045514835
 21
-10.28973352304318
 31
0.0
  0
LINE
  5
AA3
330
CA0
100
AcDbEntity
  8
TITLEBLOCK_NOTES
  6
Continuous
 62
     3
100
AcDbLine
 10
20.07989908684261
 20
-10.27257938733082
 30
0.0
 11
20.19572045514835
 21
-10.27055770109241
 31
0.0
  0
LINE
  5
AA4
330
CA0
100
AcDbEntity
  8
TITLEBLOCK_NOTES
  6
Continuous
 62
     3
100
AcDbLine
 10
20.08662930132466
 20
-10.25328608344703
 30
0.0
 11
20.19572045514835
 21
-10.25138187914162
 31
0.0
  0
LINE
  5
AA5
330
CA0
100
AcDbEntity
  8
TITLEBLOCK_NOTES
  6
Continuous
 62
     3
100
AcDbLine
 10
20.09335951580685
 20
-10.23399277956323
 30
0.0
 11
20.19572045514835
 21
-10.23220605719083
 31
0.0
  0
LINE
  5
AA6
330
CA0
100
AcDbEntity
  8
TITLEBLOCK_NOTES
  6
Continuous
 62
     3
100
AcDbLine
 10
20.10008973028896
 20
-10.21469947567944
 30
0.0
 11
20.19572045514835
 21
-10.21303023523998
 31
0.0
  0
LINE
  5
AA7
330
CA0
100
AcDbEntity
  8
TITLEBLOCK_NOTES
  6
Continuous
 62
     3
100
AcDbLine
 10
20.10681994477115
 20
-10.19540617179558
 30
0.0
 11
20.19572045514835
 21
-10.19385441328919
 31
0.0
  0
LINE
  5
AA8
330
CA0
100
AcDbEntity
  8
TITLEBLOCK_NOTES
  6
Continuous
 62
     3
100
AcDbLine
 10
20.1135501592532
 20
-10.17611291584403
 30
0.0
 11
20.19572045514835
 21
-10.1746785913384
 31
0.0
  0
LINE
  5
AA9
330
CA0
100
AcDbEntity
  8
TITLEBLOCK_NOTES
  6
Continuous
 62
     3
100
AcDbLine
 10
20.14720127959592
 20
-10.07964644435723
 30
0.0
 11
20.19572045514835
 21
-10.07879952951665
 31
0.0
  0
LINE
  5
AAA
330
CA0
100
AcDbEntity
  8
TITLEBLOCK_NOTES
  6
Continuous
 62
     3
100
AcDbLine
 10
20.15393149407817
 20
-10.06035314047343
 30
0.0
 11
20.19572045514835
 21
-10.05962370756586
 31
0.0
  0
LINE
  5
AAB
330
CA0
100
AcDbEntity
  8
TITLEBLOCK_NOTES
  6
Continuous
 62
     3
100
AcDbLine
 10
20.16066170856036
 20
-10.04105983658958
 30
0.0
 11
20.19572045514835
 21
-10.040447885615
 31
0.0
  0
LINE
  5
AAC
330
CA0
100
AcDbEntity
  8
TITLEBLOCK_NOTES
  6
Continuous
 62
     3
100
AcDbLine
 10
20.16739192304241
 20
-10.02176653270585
 30
0.0
 11
20.19572045514835
 21
-10.02127206366422
 31
0.0
  0
LINE
  5
AAD
330
CA0
100
AcDbEntity
  8
TITLEBLOCK_NOTES
  6
Continuous
 62
     3
100
AcDbLine
 10
20.17412213752466
 20
-10.00247322882199
 30
0.0
 11
20.19572045514835
 21
-10.00209624171343
 31
0.0
  0
LINE
  5
AAE
330
CA0
100
AcDbEntity
  8
TITLEBLOCK_NOTES
  6
Continuous
 62
     3
100
AcDbLine
 10
20.18085235200671
 20
-9.983179972870438
 30
0.0
 11
20.19572045514835
 21
-9.982920419762642
 31
0.0
  0
LINE
  5
AAF
330
CA0
100
AcDbEntity
  8
TITLEBLOCK_NOTES
  6
Continuous
 62
     3
100
AcDbLine
 10
20.18758256648883
 20
-9.963886668986576
 30
0.0
 11
20.19572045514835
 21
-9.963744597811855
 31
0.0
  0
LINE
  5
AB0
330
CA0
100
AcDbEntity
  8
TITLEBLOCK_NOTES
  6
Continuous
 62
     3
100
AcDbLine
 10
20.19431278097088
 20
-9.944593365102848
 30
0.0
 11
20.19572045514835
 21
-9.944568775861004
 31
0.0
  0
LINE
  5
AB1
330
CA0
100
AcDbEntity
  8
TITLEBLOCK_NOTES
  6
Continuous
 62
     3
100
AcDbLine
 10
20.12028037373533
 20
-10.15681961196023
 30
0.0
 11
20.19572045514835
 21
-10.15550281731979
 31
0.0
  0
LINE
  5
AB2
330
CA0
100
AcDbEntity
  8
TITLEBLOCK_NOTES
  6
Continuous
 62
     3
100
AcDbLine
 10
20.12701058821737
 20
-10.13752630807644
 30
0.0
 11
20.19572045514835
 21
-10.13632699536901
 31
0.0
  0
LINE
  5
AB3
330
CA0
100
AcDbEntity
  8
TITLEBLOCK_NOTES
  6
Continuous
 62
     3
100
AcDbLine
 10
20.13374080269956
 20
-10.11823300419258
 30
0.0
 11
20.19572045514835
 21
-10.11715117341822
 31
0.0
  0
LINE
  5
AB4
330
CA0
100
AcDbEntity
  8
TITLEBLOCK_NOTES
  6
Continuous
 62
     3
100
AcDbLine
 10
20.14047101718169
 20
-10.09893970030878
 30
0.0
 11
20.19572045514835
 21
-10.09797535146742
 31
0.0
  0
LINE
  5
AB5
330
CA0
100
AcDbEntity
  8
TITLEBLOCK_NOTES
  6
Continuous
 62
     3
100
AcDbLine
 10
19.69553050837123
 20
-9.856014671819952
 30
0.0
 11
19.71336988346104
 21
-9.855703303955024
 31
0.0
  0
LINE
  5
AB6
330
CA0
100
AcDbEntity
  8
TITLEBLOCK_NOTES
  6
Continuous
 62
     3
100
AcDbLine
 10
19.69120035727117
 20
-9.836914439019853
 30
0.0
 11
19.71773449784532
 21
-9.836451269734373
 31
0.0
  0
LINE
  5
AB7
330
CA0
100
AcDbEntity
  8
TITLEBLOCK_NOTES
  6
Continuous
 62
     3
100
AcDbLine
 10
19.68687015823887
 20
-9.817814206219692
 30
0.0
 11
19.72209911222973
 21
-9.817199283445955
 31
0.0
  0
LINE
  5
AB8
330
CA0
100
AcDbEntity
  8
TITLEBLOCK_NOTES
  6
Continuous
 62
     3
100
AcDbLine
 10
19.68253995920671
 20
-9.798713973419591
 30
0.0
 11
19.72646367868175
 21
-9.797947297157479
 31
0.0
  0
LINE
  5
AB9
330
CA0
100
AcDbEntity
  8
TITLEBLOCK_NOTES
  6
Continuous
 62
     3
100
AcDbLine
 10
19.67820980810672
 20
-9.779613740619497
 30
0.0
 11
19.73082829306601
 21
-9.778695262936823
 31
0.0
  0
LINE
  5
ABA
330
CA0
100
AcDbEntity
  8
TITLEBLOCK_NOTES
  6
Continuous
 62
     3
100
AcDbLine
 10
19.67387960907455
 20
-9.760513507819394
 30
0.0
 11
19.73519285951805
 21
-9.759443276648349
 31
0.0
  0
LINE
  5
ABB
330
CA0
100
AcDbEntity
  8
TITLEBLOCK_NOTES
  6
Continuous
 62
     3
100
AcDbLine
 10
19.66954941004226
 20
-9.741413275019299
 30
0.0
 11
19.73955747390238
 21
-9.740191290359938
 31
0.0
  0
LINE
  5
ABC
330
CA0
100
AcDbEntity
  8
TITLEBLOCK_NOTES
  6
Continuous
 62
     3
100
AcDbLine
 10
19.66521925894225
 20
-9.722313042219203
 30
0.0
 11
19.74392204035442
 21
-9.720939256139219
 31
0.0
  0
LINE
  5
ABD
330
CA0
100
AcDbEntity
  8
TITLEBLOCK_NOTES
  6
Continuous
 62
     3
100
AcDbLine
 10
19.66088905991003
 20
-9.703212809419103
 30
0.0
 11
19.74828665473868
 21
-9.701687269850808
 31
0.0
  0
LINE
  5
ABE
330
CA0
100
AcDbEntity
  8
TITLEBLOCK_NOTES
  6
Continuous
 62
     3
100
AcDbLine
 10
19.65655886087773
 20
-9.684112576619003
 30
0.0
 11
19.75265122119072
 21
-9.682435283562396
 31
0.0
  0
LINE
  5
ABF
330
CA0
100
AcDbEntity
  8
TITLEBLOCK_NOTES
  6
Continuous
 62
     3
100
AcDbLine
 10
19.65222870977774
 20
-9.665012343818908
 30
0.0
 11
19.75701583557505
 21
-9.663183249341672
 31
0.0
  0
LINE
  5
AC0
330
CA0
100
AcDbEntity
  8
TITLEBLOCK_NOTES
  6
Continuous
 62
     3
100
AcDbLine
 10
19.64789851074559
 20
-9.645912111018807
 30
0.0
 11
19.76138040202706
 21
-9.643931263053261
 31
0.0
  0
LINE
  5
AC1
330
CA0
100
AcDbEntity
  8
TITLEBLOCK_NOTES
  6
Continuous
 62
     3
100
AcDbLine
 10
19.6448214043998
 20
-9.63233913714275
 30
0.0
 11
19.76400843116745
 21
-9.63233913714275
 31
0.0
  0
LINE
  5
AC2
330
CA0
100
AcDbEntity
  8
TITLEBLOCK_NOTES
  6
Continuous
 62
     3
100
AcDbLine
 10
19.70419090643569
 20
-9.894215137420147
 30
0.0
 11
19.70464070262475
 21
-9.89420732446422
 31
0.0
  0
LINE
  5
AC3
330
CA0
100
AcDbEntity
  8
TITLEBLOCK_NOTES
  6
Continuous
 62
     3
100
AcDbLine
 10
19.69986070740338
 20
-9.875114904620048
 30
0.0
 11
19.70900531700901
 21
-9.874955290243502
 31
0.0
  0
LINE
  5
AC4
330
CA0
100
AcDbEntity
  8
TITLEBLOCK_NOTES
  6
Continuous
 62
     3
100
AcDbLine
 10
19.60796649278717
 20
-9.469773811918422
 30
0.0
 11
19.80162973144881
 21
-9.466393390325068
 31
0.0
  0
LINE
  5
AC5
330
CA0
100
AcDbEntity
  8
TITLEBLOCK_NOTES
  6
Continuous
 62
     3
100
AcDbLine
 10
19.61662684291945
 20
-9.50797427751868
 30
0.0
 11
19.79290055061244
 21
-9.504897410834198
 31
0.0
  0
LINE
  5
AC6
330
CA0
100
AcDbEntity
  8
TITLEBLOCK_NOTES
  6
Continuous
 62
     3
100
AcDbLine
 10
19.61229664388716
 20
-9.488874044718519
 30
0.0
 11
19.79726511706447
 21
-9.485645424545719
 31
0.0
  0
LINE
  5
AC7
330
CA0
100
AcDbEntity
  8
TITLEBLOCK_NOTES
  6
Continuous
 62
     3
100
AcDbLine
 10
19.62095704195169
 20
-9.527074510318778
 30
0.0
 11
19.7885359362281
 21
-9.524149397122609
 31
0.0
  0
LINE
  5
AC8
330
CA0
100
AcDbEntity
  8
TITLEBLOCK_NOTES
  6
Continuous
 62
     3
100
AcDbLine
 10
19.6234303937367
 20
-9.537984320718685
 30
0.0
 11
19.78539944183056
 21
-9.537984320718685
 31
0.0
  0
LINE
  5
AC9
330
CA0
100
AcDbEntity
  8
TITLEBLOCK_NOTES
  6
Continuous
 62
     3
100
AcDbLine
 10
19.60363629375493
 20
-9.450673579118323
 30
0.0
 11
19.80599429790084
 21
-9.447141404036589
 31
0.0
  0
LINE
  5
ACA
330
CA0
100
AcDbEntity
  8
TITLEBLOCK_NOTES
  6
Continuous
 62
     3
100
AcDbLine
 10
19.59930609472264
 20
-9.431573346318225
 30
0.0
 11
19.81035891228524
 21
-9.427889417748179
 31
0.0
  0
LINE
  5
ACB
330
CA0
100
AcDbEntity
  8
TITLEBLOCK_NOTES
  6
Continuous
 62
     3
100
AcDbLine
 10
19.59497594362278
 20
-9.412473113518128
 30
0.0
 11
19.81472352666951
 21
-9.408637383527459
 31
0.0
  0
LINE
  5
ACC
330
CA0
100
AcDbEntity
  8
TITLEBLOCK_NOTES
  6
Continuous
 62
     3
100
AcDbLine
 10
19.59064574459049
 20
-9.393372880718029
 30
0.0
 11
19.81908809312146
 21
-9.389385397239042
 31
0.0
  0
LINE
  5
ACD
330
CA0
100
AcDbEntity
  8
TITLEBLOCK_NOTES
  6
Continuous
 62
     3
100
AcDbLine
 10
19.58631554555817
 20
-9.37427264791793
 30
0.0
 11
19.82345270750581
 21
-9.370133410950568
 31
0.0
  0
LINE
  5
ACE
330
CA0
100
AcDbEntity
  8
TITLEBLOCK_NOTES
  6
Continuous
 62
     3
100
AcDbLine
 10
19.58198539445826
 20
-9.355172415117833
 30
0.0
 11
19.82781727395783
 21
-9.350881376729914
 31
0.0
  0
LINE
  5
ACF
330
CA0
100
AcDbEntity
  8
TITLEBLOCK_NOTES
  6
Continuous
 62
     3
100
AcDbLine
 10
19.57765519542603
 20
-9.336072182317735
 30
0.0
 11
19.83218188834223
 21
-9.331629390441504
 31
0.0
  0
LINE
  5
AD0
330
CA0
100
AcDbEntity
  8
TITLEBLOCK_NOTES
  6
Continuous
 62
     3
100
AcDbLine
 10
19.57332499639379
 20
-9.316971949517567
 30
0.0
 11
19.83654645479427
 21
-9.312377404153027
 31
0.0
  0
LINE
  5
AD1
330
CA0
100
AcDbEntity
  8
TITLEBLOCK_NOTES
  6
Continuous
 62
     3
100
AcDbLine
 10
19.56995281914663
 20
-9.302097327590674
 30
0.0
 11
19.83887701642076
 21
-9.302097327590674
 31
0.0
  0
LINE
  5
AD2
330
CA0
100
AcDbEntity
  8
TITLEBLOCK_NOTES
  6
Continuous
 62
     3
100
AcDbLine
 10
19.53769513710411
 20
-9.15981026595697
 30
0.0
 11
19.87113469846316
 21
-9.15981026595697
 31
0.0
  0
LINE
  5
AD3
330
CA0
100
AcDbEntity
  8
TITLEBLOCK_NOTES
  6
Continuous
 62
     3
100
AcDbLine
 10
19.53260406161141
 20
-9.137353817347271
 30
0.0
 11
19.87622577395578
 21
-9.137353817347271
 31
0.0
  0
LINE
  5
AD4
330
CA0
100
AcDbEntity
  8
TITLEBLOCK_NOTES
  6
Continuous
 62
     3
100
AcDbLine
 10
19.86570138673966
 20
-9.183776388561758
 30
0.0
 11
19.54312844882753
 21
-9.183776388561758
 31
0.0
  0
LINE
  5
AD5
330
CA0
100
AcDbEntity
  8
TITLEBLOCK_NOTES
  6
Continuous
 62
     3
100
AcDbLine
 10
19.5485617605512
 20
-9.207742511166614
 30
0.0
 11
19.86026807501611
 21
-9.207742511166614
 31
0.0
  0
LINE
  5
AD6
330
CA0
100
AcDbEntity
  8
TITLEBLOCK_NOTES
  6
Continuous
 62
     3
100
AcDbLine
 10
19.52717074988792
 20
-9.113387694742483
 30
0.0
 11
19.88165908567933
 21
-9.113387694742483
 31
0.0
  0
LINE
  5
AD7
330
CA0
100
AcDbEntity
  8
TITLEBLOCK_NOTES
  6
Continuous
 62
     3
100
AcDbLine
 10
19.70441494174976
 20
-10.11199538939449
 30
0.0
 11
20.05192371951942
 21
-8.579150707277106
 31
0.0
  0
LINE
  5
AD8
330
CA0
100
AcDbEntity
  8
TITLEBLOCK_NOTES
  6
Continuous
 62
     3
100
AcDbLine
 10
20.03278274431088
 20
-8.55518458467232
 30
0.0
 11
19.70441494174976
 21
-10.00359934899095
 31
0.0
  0
LINE
  5
AD9
330
CA0
100
AcDbEntity
  8
TITLEBLOCK_NOTES
  6
Continuous
 62
     3
100
AcDbLine
 10
20.01364176910239
 20
-8.531218462067469
 30
0.0
 11
19.70441494174976
 21
-9.895203308587428
 31
0.0
  0
LINE
  5
ADA
330
CA0
100
AcDbEntity
  8
TITLEBLOCK_NOTES
  6
Continuous
 62
     3
100
AcDbLine
 10
20.21968657775307
 20
-10.71213561910473
 30
0.0
 11
20.62711066203487
 21
-10.71213561910473
 31
0.0
  0
LINE
  5
ADB
330
CA0
100
AcDbEntity
  8
TITLEBLOCK_NOTES
  6
Continuous
 62
     3
100
AcDbLine
 10
20.19572045514835
 20
-10.73610174170952
 30
0.0
 11
20.65107678463959
 21
-10.73610174170952
 31
0.0
  0
LINE
  5
ADC
330
CA0
100
AcDbEntity
  8
TITLEBLOCK_NOTES
  6
Continuous
 62
     3
100
AcDbLine
 10
20.60314453943002
 20
-10.68816949649988
 30
0.0
 11
20.2436527003578
 21
-10.68816949649988
 31
0.0
  0
LINE
  5
ADD
330
CA0
100
AcDbEntity
  8
TITLEBLOCK_NOTES
  6
Continuous
 62
     3
100
AcDbLine
 10
19.92510400995685
 20
-10.71632518492945
 30
0.0
 11
20.19572045514835
 21
-10.71160155802859
 31
0.0
  0
LINE
  5
ADE
330
CA0
100
AcDbEntity
  8
TITLEBLOCK_NOTES
  6
Continuous
 62
     3
100
AcDbLine
 10
19.93183422443897
 20
-10.69703188104566
 30
0.0
 11
20.19572045514835
 21
-10.6924257360778
 31
0.0
  0
LINE
  5
ADF
330
CA0
100
AcDbEntity
  8
TITLEBLOCK_NOTES
  6
Continuous
 62
     3
100
AcDbLine
 10
19.9385644389211
 20
-10.67773857716186
 30
0.0
 11
20.19572045514835
 21
-10.67324991412695
 31
0.0
  0
LINE
  5
AE0
330
CA0
100
AcDbEntity
  8
TITLEBLOCK_NOTES
  6
Continuous
 62
     3
100
AcDbLine
 10
19.94529470133559
 20
-10.65844527327807
 30
0.0
 11
20.19572045514835
 21
-10.65407409217616
 31
0.0
  0
LINE
  5
AE1
330
CA0
100
AcDbEntity
  8
TITLEBLOCK_NOTES
  6
Continuous
 62
     3
100
AcDbLine
 10
19.95202491581764
 20
-10.63915196939428
 30
0.0
 11
20.19572045514835
 21
-10.63489827022538
 31
0.0
  0
LINE
  5
AE2
330
CA0
100
AcDbEntity
  8
TITLEBLOCK_NOTES
  6
Continuous
 62
     3
100
AcDbLine
 10
19.95875513029983
 20
-10.61985866551042
 30
0.0
 11
20.19572045514835
 21
-10.61572244827459
 31
0.0
  0
LINE
  5
AE3
330
CA0
100
AcDbEntity
  8
TITLEBLOCK_NOTES
  6
Continuous
 62
     3
100
AcDbLine
 10
19.96548534478195
 20
-10.60056540955887
 30
0.0
 11
20.19572045514835
 21
-10.5965466263238
 31
0.0
  0
LINE
  5
AE4
330
CA0
100
AcDbEntity
  8
TITLEBLOCK_NOTES
  6
Continuous
 62
     3
100
AcDbLine
 10
19.5246690222138
 20
-10.68816949649988
 30
0.0
 11
19.88416086128583
 21
-10.68816949649988
 31
0.0
  0
LINE
  5
AE5
330
CA0
100
AcDbEntity
  8
TITLEBLOCK_NOTES
  6
Continuous
 62
     3
100
AcDbLine
 10
19.91837379547481
 20
-10.73561844088107
 30
0.0
 11
20.19572045514835
 21
-10.73077733204713
 31
0.0
  0
LINE
  5
AE6
330
CA0
100
AcDbEntity
  8
TITLEBLOCK_NOTES
  6
Continuous
 62
     3
100
AcDbLine
 10
20.21968657775307
 20
-9.799092158834328
 30
0.0
 11
20.21968657775307
 21
-10.71213561910473
 31
0.0
  0
LINE
  5
AE7
330
CA0
100
AcDbEntity
  8
TITLEBLOCK_NOTES
  6
Continuous
 62
     3
100
AcDbLine
 10
20.21968657775307
 20
-9.799092158834328
 30
0.0
 11
19.90118303952715
 21
-10.71213561910473
 31
0.0
  0
LINE
  5
AE8
330
CA0
100
AcDbEntity
  8
TITLEBLOCK_NOTES
  6
Continuous
 62
     3
100
AcDbLine
 10
20.19572045514835
 20
-9.940558093175337
 30
0.0
 11
20.19572045514835
 21
-10.73610174170952
 31
0.0
  0
LINE
  5
AE9
330
CA0
100
AcDbEntity
  8
TITLEBLOCK_NOTES
  6
Continuous
 62
     3
100
AcDbLine
 10
19.91820521776839
 20
-10.73610174170952
 30
0.0
 11
20.19572045514835
 21
-9.940558093175337
 31
0.0
  0
LINE
  5
AEA
330
CA0
100
AcDbEntity
  8
TITLEBLOCK_NOTES
  6
Continuous
 62
     3
100
AcDbLine
 10
20.2436527003578
 20
-10.68816949649988
 30
0.0
 11
20.2436527003578
 21
-9.657626224493318
 31
0.0
  0
LINE
  5
AEB
330
CA0
100
AcDbEntity
  8
TITLEBLOCK_NOTES
  6
Continuous
 62
     3
100
AcDbLine
 10
19.88416086128583
 20
-10.68816949649988
 30
0.0
 11
20.2436527003578
 21
-9.657626224493318
 31
0.0
  0
LINE
  5
AEC
330
CA0
100
AcDbEntity
  8
TITLEBLOCK_NOTES
  6
Continuous
 62
     3
100
AcDbLine
 10
20.62711066203487
 20
-8.55518458467232
 30
0.0
 11
20.62711066203487
 21
-10.71213561910473
 31
0.0
  0
LINE
  5
AED
330
CA0
100
AcDbEntity
  8
TITLEBLOCK_NOTES
  6
Continuous
 62
     3
100
AcDbLine
 10
20.65107678463959
 20
-10.73610174170952
 30
0.0
 11
20.65107678463959
 21
-8.531218462067469
 31
0.0
  0
LINE
  5
AEE
330
CA0
100
AcDbEntity
  8
TITLEBLOCK_NOTES
  6
Continuous
 62
     3
100
AcDbLine
 10
20.60314453943002
 20
-10.68816949649988
 30
0.0
 11
20.60314453943002
 21
-8.579150707277106
 31
0.0
  0
LINE
  5
AEF
330
CA0
100
AcDbEntity
  8
TITLEBLOCK_NOTES
  6
Continuous
 62
     3
100
AcDbLine
 10
18.22832822122027
 20
-10.80346993716468
 30
0.0
 11
22.64026496083836
 21
-10.72645930780521
 31
0.0
  0
LINE
  5
AF0
330
CA0
100
AcDbEntity
  8
TITLEBLOCK_NOTES
  6
Continuous
 62
     3
100
AcDbLine
 10
18.22832822122027
 20
-10.82264575911547
 30
0.0
 11
23.18643122962708
 21
-10.73610174170952
 31
0.0
  0
LINE
  5
AF1
330
CA0
100
AcDbEntity
  8
TITLEBLOCK_NOTES
  6
Continuous
 62
     3
100
AcDbLine
 10
18.22832822122027
 20
-10.78429411521389
 30
0.0
 11
21.45809872000187
 21
-10.72791826948486
 31
0.0
  0
LINE
  5
AF2
330
CA0
100
AcDbEntity
  8
TITLEBLOCK_NOTES
  6
Continuous
 62
     3
100
AcDbLine
 10
20.91470413329233
 20
-8.78239100026059
 30
0.0
 11
20.65107678463959
 21
-8.78239100026059
 31
0.0
  0
LINE
  5
AF3
330
CA0
100
AcDbEntity
  8
TITLEBLOCK_NOTES
  6
Continuous
 62
     3
100
AcDbLine
 10
20.91470413329233
 20
-8.806357122865373
 30
0.0
 11
20.65107678463959
 21
-8.806357122865373
 31
0.0
  0
LINE
  5
AF4
330
CA0
100
AcDbEntity
  8
TITLEBLOCK_NOTES
  6
Continuous
 62
     3
100
AcDbLine
 10
20.91470413329233
 20
-8.758424877655734
 30
0.0
 11
20.65107678463959
 21
-8.758424877655734
 31
0.0
  0
LINE
  5
AF5
330
CA0
100
AcDbEntity
  8
TITLEBLOCK_NOTES
  6
Continuous
 62
     3
100
AcDbLine
 10
20.91470413329233
 20
-8.83032324547023
 30
0.0
 11
20.65107678463959
 21
-8.83032324547023
 31
0.0
  0
LINE
  5
AF6
330
CA0
100
AcDbEntity
  8
TITLEBLOCK_NOTES
  6
Continuous
 62
     3
100
AcDbLine
 10
20.65107678463959
 20
-10.53107089177395
 30
0.0
 11
21.08207102324838
 21
-10.52354787795611
 31
0.0
  0
LINE
  5
AF7
330
CA0
100
AcDbEntity
  8
TITLEBLOCK_NOTES
  6
Continuous
 62
     3
100
AcDbLine
 10
20.65107678463959
 20
-10.56942253567559
 30
0.0
 11
21.11913784331716
 21
-10.56125248447959
 31
0.0
  0
LINE
  5
AF8
330
CA0
100
AcDbEntity
  8
TITLEBLOCK_NOTES
  6
Continuous
 62
     3
100
AcDbLine
 10
20.65107678463959
 20
-10.5502467137248
 30
0.0
 11
21.0998600694808
 21
-10.5424131468902
 31
0.0
  0
LINE
  5
AF9
330
CA0
100
AcDbEntity
  8
TITLEBLOCK_NOTES
  6
Continuous
 62
     3
100
AcDbLine
 10
20.65107678463959
 20
-10.58859835762637
 30
0.0
 11
21.14010091489511
 21
-10.58006239167045
 31
0.0
  0
LINE
  5
AFA
330
CA0
100
AcDbEntity
  8
TITLEBLOCK_NOTES
  6
Continuous
 62
     3
100
AcDbLine
 10
20.65107678463959
 20
-10.2242577884934
 30
0.0
 11
20.92780185895716
 21
-10.21942756027917
 31
0.0
  0
LINE
  5
AFB
330
CA0
100
AcDbEntity
  8
TITLEBLOCK_NOTES
  6
Continuous
 62
     3
100
AcDbLine
 10
20.65107678463959
 20
-10.20508196654261
 30
0.0
 11
20.92416893029602
 21
-10.20031515268877
 31
0.0
  0
LINE
  5
AFC
330
CA0
100
AcDbEntity
  8
TITLEBLOCK_NOTES
  6
Continuous
 62
     3
100
AcDbLine
 10
20.65107678463959
 20
-10.18590614459176
 30
0.0
 11
20.92112499306393
 21
-10.18119243966565
 31
0.0
  0
LINE
  5
AFD
330
CA0
100
AcDbEntity
  8
TITLEBLOCK_NOTES
  6
Continuous
 62
     3
100
AcDbLine
 10
20.65107678463959
 20
-10.16673032264097
 30
0.0
 11
20.91866266569535
 21
-10.16205961293881
 31
0.0
  0
LINE
  5
AFE
330
CA0
100
AcDbEntity
  8
TITLEBLOCK_NOTES
  6
Continuous
 62
     3
100
AcDbLine
 10
20.65107678463959
 20
-10.43519178201995
 30
0.0
 11
21.01095404689535
 21
-10.42891011748853
 31
0.0
  0
LINE
  5
AFF
330
CA0
100
AcDbEntity
  8
TITLEBLOCK_NOTES
  6
Continuous
 62
     3
100
AcDbLine
 10
20.65107678463959
 20
-10.41601596006916
 30
0.0
 11
20.99968517604652
 21
-10.40993100947203
 31
0.0
  0
LINE
  5
B00
330
CA0
100
AcDbEntity
  8
TITLEBLOCK_NOTES
  6
Continuous
 62
     3
100
AcDbLine
 10
20.65107678463959
 20
-10.39684018605062
 30
0.0
 11
20.98925890613637
 21
-10.3909371862563
 31
0.0
  0
LINE
  5
B01
330
CA0
100
AcDbEntity
  8
TITLEBLOCK_NOTES
  6
Continuous
 62
     3
100
AcDbLine
 10
20.65107678463959
 20
-10.37766436409983
 30
0.0
 11
20.97963171468595
 21
-10.37192941475718
 31
0.0
  0
LINE
  5
B02
330
CA0
100
AcDbEntity
  8
TITLEBLOCK_NOTES
  6
Continuous
 62
     3
100
AcDbLine
 10
20.65107678463959
 20
-10.35848854214898
 30
0.0
 11
20.97076626247653
 21
-10.35290831809394
 31
0.0
  0
LINE
  5
B03
330
CA0
100
AcDbEntity
  8
TITLEBLOCK_NOTES
  6
Continuous
 62
     3
100
AcDbLine
 10
20.65107678463959
 20
-10.33931272019819
 30
0.0
 11
20.96263014731012
 21
-10.33387451938569
 31
0.0
  0
LINE
  5
B04
330
CA0
100
AcDbEntity
  8
TITLEBLOCK_NOTES
  6
Continuous
 62
     3
100
AcDbLine
 10
20.65107678463959
 20
-10.51189506982316
 30
0.0
 11
21.06561569173896
 21
-10.50465926601855
 31
0.0
  0
LINE
  5
B05
330
CA0
100
AcDbEntity
  8
TITLEBLOCK_NOTES
  6
Continuous
 62
     3
100
AcDbLine
 10
20.65107678463959
 20
-10.49271924787237
 30
0.0
 11
21.05036969077618
 21
-10.48574956389319
 31
0.0
  0
LINE
  5
B06
330
CA0
100
AcDbEntity
  8
TITLEBLOCK_NOTES
  6
Continuous
 62
     3
100
AcDbLine
 10
20.65107678463959
 20
-10.47354342592158
 30
0.0
 11
21.03623126020341
 21
-10.46682054507295
 31
0.0
  0
LINE
  5
B07
330
CA0
100
AcDbEntity
  8
TITLEBLOCK_NOTES
  6
Continuous
 62
     3
100
AcDbLine
 10
20.65107678463959
 20
-10.45436760397074
 30
0.0
 11
21.02311623099812
 21
-10.4478736475253
 31
0.0
  0
LINE
  5
B08
330
CA0
100
AcDbEntity
  8
TITLEBLOCK_NOTES
  6
Continuous
 62
     3
100
AcDbLine
 10
20.65107678463959
 20
-10.3201368982474
 30
0.0
 11
20.95519547262016
 21
-10.31482849795488
 31
0.0
  0
LINE
  5
B09
330
CA0
100
AcDbEntity
  8
TITLEBLOCK_NOTES
  6
Continuous
 62
     3
100
AcDbLine
 10
20.65107678463959
 20
-10.30096107629661
 30
0.0
 11
20.94843793675825
 21
-10.29577058932731
 31
0.0
  0
LINE
  5
B0A
330
CA0
100
AcDbEntity
  8
TITLEBLOCK_NOTES
  6
Continuous
 62
     3
100
AcDbLine
 10
20.65107678463959
 20
-10.28178525434583
 30
0.0
 11
20.94233668919779
 21
-10.2767012728254
 31
0.0
  0
LINE
  5
B0B
330
CA0
100
AcDbEntity
  8
TITLEBLOCK_NOTES
  6
Continuous
 62
     3
100
AcDbLine
 10
20.65107678463959
 20
-10.26260943239498
 30
0.0
 11
20.93687351568548
 21
-10.25762083604256
 31
0.0
  0
LINE
  5
B0C
330
CA0
100
AcDbEntity
  8
TITLEBLOCK_NOTES
  6
Continuous
 62
     3
100
AcDbLine
 10
20.65107678463959
 20
-10.24343361044419
 30
0.0
 11
20.93203298203861
 21
-10.23852951864008
 31
0.0
  0
LINE
  5
B0D
330
CA0
100
AcDbEntity
  8
TITLEBLOCK_NOTES
  6
Continuous
 62
     3
100
AcDbLine
 10
20.65107678463959
 20
-9.992742120264031
 30
0.0
 11
20.91470413329233
 21
-9.98814048092716
 31
0.0
  0
LINE
  5
B0E
330
CA0
100
AcDbEntity
  8
TITLEBLOCK_NOTES
  6
Continuous
 62
     3
100
AcDbLine
 10
20.91470413329233
 20
-10.00975840283913
 30
0.0
 11
20.65107678463959
 21
-10.00975840283913
 31
0.0
  0
LINE
  5
B0F
330
CA0
100
AcDbEntity
  8
TITLEBLOCK_NOTES
  6
Continuous
 62
     3
100
AcDbLine
 10
20.65107678463959
 20
-9.973566298313244
 30
0.0
 11
20.91470413329233
 21
-9.968964658976375
 31
0.0
  0
LINE
  5
B10
330
CA0
100
AcDbEntity
  8
TITLEBLOCK_NOTES
  6
Continuous
 62
     3
100
AcDbLine
 10
20.65107678463959
 20
-9.954390476362455
 30
0.0
 11
20.91470413329233
 21
-9.949788837025586
 31
0.0
  0
LINE
  5
B11
330
CA0
100
AcDbEntity
  8
TITLEBLOCK_NOTES
  6
Continuous
 62
     3
100
AcDbLine
 10
20.65107678463959
 20
-9.935214654411602
 30
0.0
 11
20.91470413329233
 21
-9.930613015074799
 31
0.0
  0
LINE
  5
B12
330
CA0
100
AcDbEntity
  8
TITLEBLOCK_NOTES
  6
Continuous
 62
     3
100
AcDbLine
 10
20.65107678463959
 20
-9.916038832460815
 30
0.0
 11
20.91470413329233
 21
-9.911437193123948
 31
0.0
  0
LINE
  5
B13
330
CA0
100
AcDbEntity
  8
TITLEBLOCK_NOTES
  6
Continuous
 62
     3
100
AcDbLine
 10
20.65107678463959
 20
-9.896863010510028
 30
0.0
 11
20.91470413329233
 21
-9.892261371173161
 31
0.0
  0
LINE
  5
B14
330
CA0
100
AcDbEntity
  8
TITLEBLOCK_NOTES
  6
Continuous
 62
     3
100
AcDbLine
 10
20.65107678463959
 20
-9.877687188559239
 30
0.0
 11
20.91470413329233
 21
-9.873085549222375
 31
0.0
  0
LINE
  5
B15
330
CA0
100
AcDbEntity
  8
TITLEBLOCK_NOTES
  6
Continuous
 62
     3
100
AcDbLine
 10
20.65107678463959
 20
-9.858511366608386
 30
0.0
 11
20.91470413329233
 21
-9.853909727271586
 31
0.0
  0
LINE
  5
B16
330
CA0
100
AcDbEntity
  8
TITLEBLOCK_NOTES
  6
Continuous
 62
     3
100
AcDbLine
 10
20.65107678463959
 20
-9.8393355446576
 30
0.0
 11
20.91470413329233
 21
-9.834733905320799
 31
0.0
  0
LINE
  5
B17
330
CA0
100
AcDbEntity
  8
TITLEBLOCK_NOTES
  6
Continuous
 62
     3
100
AcDbLine
 10
20.65107678463959
 20
-9.820159722706812
 30
0.0
 11
20.91470413329233
 21
-9.815558131302188
 31
0.0
  0
LINE
  5
B18
330
CA0
100
AcDbEntity
  8
TITLEBLOCK_NOTES
  6
Continuous
 62
     3
100
AcDbLine
 10
20.65107678463959
 20
-9.800983900756028
 30
0.0
 11
20.91470413329233
 21
-9.796382309351406
 31
0.0
  0
LINE
  5
B19
330
CA0
100
AcDbEntity
  8
TITLEBLOCK_NOTES
  6
Continuous
 62
     3
100
AcDbLine
 10
20.65107678463959
 20
-9.781808126737484
 30
0.0
 11
20.91470413329233
 21
-9.777206487400615
 31
0.0
  0
LINE
  5
B1A
330
CA0
100
AcDbEntity
  8
TITLEBLOCK_NOTES
  6
Continuous
 62
     3
100
AcDbLine
 10
20.65107678463959
 20
-9.762632304786695
 30
0.0
 11
20.91470413329233
 21
-9.758030665449833
 31
0.0
  0
LINE
  5
B1B
330
CA0
100
AcDbEntity
  8
TITLEBLOCK_NOTES
  6
Continuous
 62
     3
100
AcDbLine
 10
20.65107678463959
 20
-9.743456482835842
 30
0.0
 11
20.91470413329233
 21
-9.738854843498975
 31
0.0
  0
LINE
  5
B1C
330
CA0
100
AcDbEntity
  8
TITLEBLOCK_NOTES
  6
Continuous
 62
     3
100
AcDbLine
 10
20.65107678463959
 20
-9.724280660885055
 30
0.0
 11
20.91470413329233
 21
-9.71967902154819
 31
0.0
  0
LINE
  5
B1D
330
CA0
100
AcDbEntity
  8
TITLEBLOCK_NOTES
  6
Continuous
 62
     3
100
AcDbLine
 10
20.65107678463959
 20
-9.705104838934268
 30
0.0
 11
20.91470413329233
 21
-9.700503199597399
 31
0.0
  0
LINE
  5
B1E
330
CA0
100
AcDbEntity
  8
TITLEBLOCK_NOTES
  6
Continuous
 62
     3
100
AcDbLine
 10
20.65107678463959
 20
-9.685929016983415
 30
0.0
 11
20.91470413329233
 21
-9.681327377646617
 31
0.0
  0
LINE
  5
B1F
330
CA0
100
AcDbEntity
  8
TITLEBLOCK_NOTES
  6
Continuous
 62
     3
100
AcDbLine
 10
20.65107678463959
 20
-9.666753195032633
 30
0.0
 11
20.91470413329233
 21
-9.662151555695826
 31
0.0
  0
LINE
  5
B20
330
CA0
100
AcDbEntity
  8
TITLEBLOCK_NOTES
  6
Continuous
 62
     3
100
AcDbLine
 10
20.65107678463959
 20
-9.647577373081842
 30
0.0
 11
20.91470413329233
 21
-9.642975733744975
 31
0.0
  0
LINE
  5
B21
330
CA0
100
AcDbEntity
  8
TITLEBLOCK_NOTES
  6
Continuous
 62
     3
100
AcDbLine
 10
20.91470413329233
 20
-9.63233913714275
 30
0.0
 11
20.65107678463959
 21
-9.63233913714275
 31
0.0
  0
LINE
  5
B22
330
CA0
100
AcDbEntity
  8
TITLEBLOCK_NOTES
  6
Continuous
 62
     3
100
AcDbLine
 10
20.65107678463959
 20
-10.14755450069019
 30
0.0
 11
20.91677619632061
 21
-10.14291672044048
 31
0.0
  0
LINE
  5
B23
330
CA0
100
AcDbEntity
  8
TITLEBLOCK_NOTES
  6
Continuous
 62
     3
100
AcDbLine
 10
20.65107678463959
 20
-10.1283786787394
 30
0.0
 11
20.91546136690221
 21
-10.12376385803508
 31
0.0
  0
LINE
  5
B24
330
CA0
100
AcDbEntity
  8
TITLEBLOCK_NOTES
  6
Continuous
 62
     3
100
AcDbLine
 10
20.65107678463959
 20
-10.10920290472085
 30
0.0
 11
20.9147156849636
 21
-10.10460102572277
 31
0.0
  0
LINE
  5
B25
330
CA0
100
AcDbEntity
  8
TITLEBLOCK_NOTES
  6
Continuous
 62
     3
100
AcDbLine
 10
20.91470413329233
 20
-10.10411321926326
 30
0.0
 11
20.65107678463959
 21
-10.10411321926326
 31
0.0
  0
LINE
  5
B26
330
CA0
100
AcDbEntity
  8
TITLEBLOCK_NOTES
  6
Continuous
 62
     3
100
AcDbLine
 10
20.65107678463959
 20
-9.47074209120389
 30
0.0
 11
20.91470413329233
 21
-9.466140451867085
 31
0.0
  0
LINE
  5
B27
330
CA0
100
AcDbEntity
  8
TITLEBLOCK_NOTES
  6
Continuous
 62
     3
100
AcDbLine
 10
20.65107678463959
 20
-9.52826950912407
 30
0.0
 11
20.91470413329233
 21
-9.523667917719512
 31
0.0
  0
LINE
  5
B28
330
CA0
100
AcDbEntity
  8
TITLEBLOCK_NOTES
  6
Continuous
 62
     3
100
AcDbLine
 10
20.65107678463959
 20
-9.509093735105528
 30
0.0
 11
20.91470413329233
 21
-9.504492095768659
 31
0.0
  0
LINE
  5
B29
330
CA0
100
AcDbEntity
  8
TITLEBLOCK_NOTES
  6
Continuous
 62
     3
100
AcDbLine
 10
20.65107678463959
 20
-9.489917913154739
 30
0.0
 11
20.91470413329233
 21
-9.485316273817874
 31
0.0
  0
LINE
  5
B2A
330
CA0
100
AcDbEntity
  8
TITLEBLOCK_NOTES
  6
Continuous
 62
     3
100
AcDbLine
 10
20.91470413329233
 20
-9.537984320718685
 30
0.0
 11
20.65107678463959
 21
-9.537984320718685
 31
0.0
  0
LINE
  5
B2B
330
CA0
100
AcDbEntity
  8
TITLEBLOCK_NOTES
  6
Continuous
 62
     3
100
AcDbLine
 10
20.91470413329233
 20
-9.15981026595697
 30
0.0
 11
20.65107678463959
 21
-9.15981026595697
 31
0.0
  0
LINE
  5
B2C
330
CA0
100
AcDbEntity
  8
TITLEBLOCK_NOTES
  6
Continuous
 62
     3
100
AcDbLine
 10
20.91470413329233
 20
-9.137353817347271
 30
0.0
 11
20.65107678463959
 21
-9.137353817347271
 31
0.0
  0
LINE
  5
B2D
330
CA0
100
AcDbEntity
  8
TITLEBLOCK_NOTES
  6
Continuous
 62
     3
100
AcDbLine
 10
20.91470413329233
 20
-9.183776388561758
 30
0.0
 11
20.65107678463959
 21
-9.183776388561758
 31
0.0
  0
LINE
  5
B2E
330
CA0
100
AcDbEntity
  8
TITLEBLOCK_NOTES
  6
Continuous
 62
     3
100
AcDbLine
 10
20.91470413329233
 20
-9.207742511166614
 30
0.0
 11
20.65107678463959
 21
-9.207742511166614
 31
0.0
  0
LINE
  5
B2F
330
CA0
100
AcDbEntity
  8
TITLEBLOCK_NOTES
  6
Continuous
 62
     3
100
AcDbLine
 10
20.65107678463959
 20
-9.336511337548312
 30
0.0
 11
20.91470413329233
 21
-9.331909698211447
 31
0.0
  0
LINE
  5
B30
330
CA0
100
AcDbEntity
  8
TITLEBLOCK_NOTES
  6
Continuous
 62
     3
100
AcDbLine
 10
20.65107678463959
 20
-9.317335515597456
 30
0.0
 11
20.91470413329233
 21
-9.312733876260658
 31
0.0
  0
LINE
  5
B31
330
CA0
100
AcDbEntity
  8
TITLEBLOCK_NOTES
  6
Continuous
 62
     3
100
AcDbLine
 10
20.91470413329233
 20
-9.302097327590674
 30
0.0
 11
20.65107678463959
 21
-9.302097327590674
 31
0.0
  0
LINE
  5
B32
330
CA0
100
AcDbEntity
  8
TITLEBLOCK_NOTES
  6
Continuous
 62
     3
100
AcDbLine
 10
20.65107678463959
 20
-9.451566269253168
 30
0.0
 11
20.91470413329233
 21
-9.446964629916298
 31
0.0
  0
LINE
  5
B33
330
CA0
100
AcDbEntity
  8
TITLEBLOCK_NOTES
  6
Continuous
 62
     3
100
AcDbLine
 10
20.65107678463959
 20
-9.432390447302314
 30
0.0
 11
20.91470413329233
 21
-9.427788807965443
 31
0.0
  0
LINE
  5
B34
330
CA0
100
AcDbEntity
  8
TITLEBLOCK_NOTES
  6
Continuous
 62
     3
100
AcDbLine
 10
20.65107678463959
 20
-9.413214625351523
 30
0.0
 11
20.91470413329233
 21
-9.408612986014658
 31
0.0
  0
LINE
  5
B35
330
CA0
100
AcDbEntity
  8
TITLEBLOCK_NOTES
  6
Continuous
 62
     3
100
AcDbLine
 10
20.65107678463959
 20
-9.394038803400738
 30
0.0
 11
20.91470413329233
 21
-9.389437164063869
 31
0.0
  0
LINE
  5
B36
330
CA0
100
AcDbEntity
  8
TITLEBLOCK_NOTES
  6
Continuous
 62
     3
100
AcDbLine
 10
20.65107678463959
 20
-9.374862981449949
 30
0.0
 11
20.91470413329233
 21
-9.370261342113085
 31
0.0
  0
LINE
  5
B37
330
CA0
100
AcDbEntity
  8
TITLEBLOCK_NOTES
  6
Continuous
 62
     3
100
AcDbLine
 10
20.65107678463959
 20
-9.355687159499101
 30
0.0
 11
20.91470413329233
 21
-9.351085520162232
 31
0.0
  0
LINE
  5
B38
330
CA0
100
AcDbEntity
  8
TITLEBLOCK_NOTES
  6
Continuous
 62
     3
100
AcDbLine
 10
20.91470413329233
 20
-9.113387694742483
 30
0.0
 11
20.65107678463959
 21
-9.113387694742483
 31
0.0
  0
LINE
  5
B39
330
CA0
100
AcDbEntity
  8
TITLEBLOCK_NOTES
  6
Continuous
 62
     3
100
AcDbLine
 10
20.65107678463959
 20
-10.70365324139892
 30
0.0
 11
21.32617197350894
 21
-10.69186943443987
 31
0.0
  0
LINE
  5
B3A
330
CA0
100
AcDbEntity
  8
TITLEBLOCK_NOTES
  6
Continuous
 62
     3
100
AcDbLine
 10
20.65107678463959
 20
-10.68447741944813
 30
0.0
 11
21.28358105804426
 21
-10.67343704161226
 31
0.0
  0
LINE
  5
B3B
330
CA0
100
AcDbEntity
  8
TITLEBLOCK_NOTES
  6
Continuous
 62
     3
100
AcDbLine
 10
20.65107678463959
 20
-10.72282906334977
 30
0.0
 11
21.37961599552744
 21
-10.71011239903436
 31
0.0
  0
LINE
  5
B3C
330
CA0
100
AcDbEntity
  8
TITLEBLOCK_NOTES
  6
Continuous
 62
     3
100
AcDbLine
 10
20.65107678463959
 20
-10.66530164542959
 30
0.0
 11
21.24756874737007
 21
-10.65488980312516
 31
0.0
  0
LINE
  5
B3D
330
CA0
100
AcDbEntity
  8
TITLEBLOCK_NOTES
  6
Continuous
 62
     3
100
AcDbLine
 10
20.65107678463959
 20
-10.6461258234788
 30
0.0
 11
21.21614642849718
 21
-10.63626246985632
 31
0.0
  0
LINE
  5
B3E
330
CA0
100
AcDbEntity
  8
TITLEBLOCK_NOTES
  6
Continuous
 62
     3
100
AcDbLine
 10
20.65107678463959
 20
-10.62695000152801
 30
0.0
 11
21.18819387692287
 21
-10.61757455022947
 31
0.0
  0
LINE
  5
B3F
330
CA0
100
AcDbEntity
  8
TITLEBLOCK_NOTES
  6
Continuous
 62
     3
100
AcDbLine
 10
20.65107678463959
 20
-10.60777417957716
 30
0.0
 11
21.16300519447178
 21
-10.59883841076401
 31
0.0
  0
TEXT
  5
B40
330
CA0
100
AcDbEntity
  8
TITLEBLOCK_NOTES
  6
Continuous
 62
     3
100
AcDbText
 10
21.47939122990107
 20
-11.8528502460129
 30
0.0
 40
0.335525716467264
  1
 AIR
 41
1.098901099999999
 51
11.0
100
AcDbText
  0
TEXT
  5
B41
330
CA0
100
AcDbEntity
  8
TITLEBLOCK_NOTES
  6
Continuous
 62
     3
100
AcDbText
 10
20.61398475220987
 20
-11.8528502460129
 30
0.0
 40
0.335525716467264
  1
 of
 41
1.098901099999999
 51
11.0
100
AcDbText
  0
TEXT
  5
B42
330
CA0
100
AcDbEntity
  8
TITLEBLOCK_NOTES
  6
Continuous
 62
     3
100
AcDbText
 10
19.16595517141367
 20
-11.8528502460129
 30
0.0
 40
0.335525716467264
  1
 SPEED
 41
0.8
 51
11.0
100
AcDbText
  0
TEXT
  5
B43
330
CA0
100
AcDbEntity
  8
TITLEBLOCK_NOTES
  6
Continuous
 62
     3
100
AcDbText
 10
18.28038494026563
 20
-11.8528502460129
 30
0.0
 40
0.335525716467264
  1
The
 41
0.8
 51
11.0
100
AcDbText
  0
LINE
  5
B44
330
CA0
100
AcDbEntity
  8
TITLEBLOCK_NOTES
  6
Continuous
 62
     3
100
AcDbLine
 10
31.43800208920357
 20
-8.405726571561782
 30
0.0
 11
18.22832822122027
 21
-8.405726571561782
 31
0.0
  0
LINE
  5
B45
330
CA0
100
AcDbEntity
  8
TITLEBLOCK_NOTES
  6
Continuous
 62
     3
100
AcDbLine
 10
31.43800208920357
 20
-7.933952489441273
 30
0.0
 11
18.22832822122027
 21
-7.933952489441273
 31
0.0
  0
LINE
  5
B46
330
CA0
100
AcDbEntity
  8
TITLEBLOCK_NOTES
  6
Continuous
 62
     3
100
AcDbLine
 10
18.22832822122027
 20
-10.86099740301704
 30
0.0
 11
25.38359506911028
 21
-10.73610174170952
 31
0.0
  0
LINE
  5
B47
330
CA0
100
AcDbEntity
  8
TITLEBLOCK_NOTES
  6
Continuous
 62
     3
100
AcDbLine
 10
18.22832822122027
 20
-10.84182158106632
 30
0.0
 11
24.28501312540249
 21
-10.73610174170952
 31
0.0
  0
LINE
  5
B48
330
CA0
100
AcDbEntity
  8
TITLEBLOCK_NOTES
  6
Continuous
 62
     3
100
AcDbLine
 10
18.22832822122027
 20
-10.91852486886947
 30
0.0
 11
28.67934080436885
 21
-10.73610174170952
 31
0.0
  0
LINE
  5
B49
330
CA0
100
AcDbEntity
  8
TITLEBLOCK_NOTES
  6
Continuous
 62
     3
100
AcDbLine
 10
18.22832822122027
 20
-10.89934904691868
 30
0.0
 11
28.34420214078178
 21
-10.7227758106253
 31
0.0
  0
LINE
  5
B4A
330
CA0
100
AcDbEntity
  8
TITLEBLOCK_NOTES
  6
Continuous
 62
     3
100
AcDbLine
 10
18.22832822122027
 20
-10.88017322496789
 30
0.0
 11
26.84777235226614
 21
-10.72972028224353
 31
0.0
  0
LINE
  5
B4B
330
CA0
100
AcDbEntity
  8
TITLEBLOCK_NOTES
  6
Continuous
 62
     3
100
AcDbLine
 10
21.81592275660184
 20
-11.04766133557197
 30
0.0
 11
31.43800208920357
 21
-10.87970732354441
 31
0.0
  0
LINE
  5
B4C
330
CA0
100
AcDbEntity
  8
TITLEBLOCK_NOTES
  6
Continuous
 62
     3
100
AcDbLine
 10
20.71734086082629
 20
-11.04766133557197
 30
0.0
 11
31.43800208920357
 21
-10.86053150159361
 31
0.0
  0
LINE
  5
B4D
330
CA0
100
AcDbEntity
  8
TITLEBLOCK_NOTES
  6
Continuous
 62
     3
100
AcDbLine
 10
18.52017702134307
 20
-11.04766133557197
 30
0.0
 11
31.43800208920357
 21
-10.82217985769204
 31
0.0
  0
LINE
  5
B4E
330
CA0
100
AcDbEntity
  8
TITLEBLOCK_NOTES
  6
Continuous
 62
     3
100
AcDbLine
 10
18.22832822122027
 20
-11.03357975264208
 30
0.0
 11
31.43800208920357
 21
-10.80300403574126
 31
0.0
  0
LINE
  5
B4F
330
CA0
100
AcDbEntity
  8
TITLEBLOCK_NOTES
  6
Continuous
 62
     3
100
AcDbLine
 10
18.22832822122027
 20
-11.01440397862347
 30
0.0
 11
31.43800208920357
 21
-10.78382826172271
 31
0.0
  0
LINE
  5
B50
330
CA0
100
AcDbEntity
  8
TITLEBLOCK_NOTES
  6
Continuous
 62
     3
100
AcDbLine
 10
18.22832822122027
 20
-10.99522815667269
 30
0.0
 11
31.43800208920357
 21
-10.76465243977193
 31
0.0
  0
LINE
  5
B51
330
CA0
100
AcDbEntity
  8
TITLEBLOCK_NOTES
  6
Continuous
 62
     3
100
AcDbLine
 10
18.22832822122027
 20
-10.9760523347219
 30
0.0
 11
31.43800208920357
 21
-10.74547661782108
 31
0.0
  0
LINE
  5
B52
330
CA0
100
AcDbEntity
  8
TITLEBLOCK_NOTES
  6
Continuous
 62
     3
100
AcDbLine
 10
18.22832822122027
 20
-11.04766133557197
 30
0.0
 11
31.43800208920357
 21
-11.04766133557197
 31
0.0
  0
LINE
  5
B53
330
CA0
100
AcDbEntity
  8
TITLEBLOCK_NOTES
  6
Continuous
 62
     3
100
AcDbLine
 10
19.61875896505073
 20
-11.04766133557197
 30
0.0
 11
31.43800208920357
 21
-10.84135567964283
 31
0.0
  0
LINE
  5
B54
330
CA0
100
AcDbEntity
  8
TITLEBLOCK_NOTES
  6
Continuous
 62
     3
100
AcDbLine
 10
18.22832822122027
 20
-10.95687651277111
 30
0.0
 11
30.87650464385229
 21
-10.73610174170952
 31
0.0
  0
LINE
  5
B55
330
CA0
100
AcDbEntity
  8
TITLEBLOCK_NOTES
  6
Continuous
 62
     3
100
AcDbLine
 10
18.22832822122027
 20
-10.93770069082026
 30
0.0
 11
29.77792270014449
 21
-10.73610174170952
 31
0.0
  0
TEXT
  5
B56
330
CA0
100
AcDbEntity
  8
TITLEBLOCK_NOTES
  6
Continuous
 62
     3
100
AcDbText
 10
22.75612002551246
 20
-11.8528502460129
 30
0.0
 40
0.335525716467264
  1
 with the
 41
0.8
 51
11.0
100
AcDbText
  0
LINE
  5
B57
330
CA0
100
AcDbEntity
  8
TITLEBLOCK_NOTES
  6
Continuous
 62
     3
100
AcDbLine
 10
22.91450470030964
 20
-11.04766133557197
 30
0.0
 11
31.43800208920357
 21
-10.89888314549526
 31
0.0
  0
LINE
  5
B58
330
CA0
100
AcDbEntity
  8
TITLEBLOCK_NOTES
  6
Continuous
 62
     3
100
AcDbLine
 10
23.67080823284492
 20
-8.531218462067469
 30
0.0
 11
25.20464007955224
 21
-8.531218462067469
 31
0.0
  0
LINE
  5
B59
330
CA0
100
AcDbEntity
  8
TITLEBLOCK_NOTES
  6
Continuous
 62
     3
100
AcDbLine
 10
23.39026166441346
 20
-9.537984320718685
 30
0.0
 11
24.21004599145303
 21
-9.523674963759527
 31
0.0
  0
LINE
  5
B5A
330
CA0
100
AcDbEntity
  8
TITLEBLOCK_NOTES
  6
Continuous
 62
     3
100
AcDbLine
 10
23.67080823284492
 20
-8.986574791558776
 30
0.0
 11
24.21004599145303
 21
-8.986574791558776
 31
0.0
  0
LINE
  5
B5B
330
CA0
100
AcDbEntity
  8
TITLEBLOCK_NOTES
  6
Continuous
 62
     3
100
AcDbLine
 10
23.0956212903296
 20
-9.485599840980508
 30
0.0
 11
24.21004599145303
 21
-9.466147497907098
 31
0.0
  0
LINE
  5
B5C
330
CA0
100
AcDbEntity
  8
TITLEBLOCK_NOTES
  6
Continuous
 62
     3
100
AcDbLine
 10
23.0956212903296
 20
-9.52395148488215
 30
0.0
 11
24.21004599145303
 21
-9.504499141808738
 31
0.0
  0
LINE
  5
B5D
330
CA0
100
AcDbEntity
  8
TITLEBLOCK_NOTES
  6
Continuous
 62
     3
100
AcDbLine
 10
23.0956212903296
 20
-9.504775662931358
 30
0.0
 11
24.21004599145303
 21
-9.485323319857885
 31
0.0
  0
LINE
  5
B5E
330
CA0
100
AcDbEntity
  8
TITLEBLOCK_NOTES
  6
Continuous
 62
     3
100
AcDbLine
 10
23.0956212903296
 20
-10.00759987004065
 30
0.0
 11
24.21004599145303
 21
-9.988147526967175
 31
0.0
  0
LINE
  5
B5F
330
CA0
100
AcDbEntity
  8
TITLEBLOCK_NOTES
  6
Continuous
 62
     3
100
AcDbLine
 10
23.0956212903296
 20
-9.988424048089859
 30
0.0
 11
24.21004599145303
 21
-9.968971705016455
 31
0.0
  0
LINE
  5
B60
330
CA0
100
AcDbEntity
  8
TITLEBLOCK_NOTES
  6
Continuous
 62
     3
100
AcDbLine
 10
23.0956212903296
 20
-9.969248226139011
 30
0.0
 11
24.21004599145303
 21
-9.949795883065599
 31
0.0
  0
LINE
  5
B61
330
CA0
100
AcDbEntity
  8
TITLEBLOCK_NOTES
  6
Continuous
 62
     3
100
AcDbLine
 10
23.0956212903296
 20
-9.950072404188221
 30
0.0
 11
24.21004599145303
 21
-9.930620061114813
 31
0.0
  0
LINE
  5
B62
330
CA0
100
AcDbEntity
  8
TITLEBLOCK_NOTES
  6
Continuous
 62
     3
100
AcDbLine
 10
23.0956212903296
 20
-9.930896630169682
 30
0.0
 11
24.21004599145303
 21
-9.911444239164024
 31
0.0
  0
LINE
  5
B63
330
CA0
100
AcDbEntity
  8
TITLEBLOCK_NOTES
  6
Continuous
 62
     3
100
AcDbLine
 10
23.0956212903296
 20
-9.911720808218829
 30
0.0
 11
24.21004599145303
 21
-9.892268417213239
 31
0.0
  0
LINE
  5
B64
330
CA0
100
AcDbEntity
  8
TITLEBLOCK_NOTES
  6
Continuous
 62
     3
100
AcDbLine
 10
23.0956212903296
 20
-9.892544986268108
 30
0.0
 11
24.21004599145303
 21
-9.873092595262383
 31
0.0
  0
LINE
  5
B65
330
CA0
100
AcDbEntity
  8
TITLEBLOCK_NOTES
  6
Continuous
 62
     3
100
AcDbLine
 10
23.0956212903296
 20
-9.873369164317251
 30
0.0
 11
24.21004599145303
 21
-9.853916773311599
 31
0.0
  0
LINE
  5
B66
330
CA0
100
AcDbEntity
  8
TITLEBLOCK_NOTES
  6
Continuous
 62
     3
100
AcDbLine
 10
23.0956212903296
 20
-9.854193342366466
 30
0.0
 11
24.21004599145303
 21
-9.83474099929306
 31
0.0
  0
LINE
  5
B67
330
CA0
100
AcDbEntity
  8
TITLEBLOCK_NOTES
  6
Continuous
 62
     3
100
AcDbLine
 10
23.0956212903296
 20
-9.835017520415679
 30
0.0
 11
24.21004599145303
 21
-9.815565177342273
 31
0.0
  0
LINE
  5
B68
330
CA0
100
AcDbEntity
  8
TITLEBLOCK_NOTES
  6
Continuous
 62
     3
100
AcDbLine
 10
23.0956212903296
 20
-9.81584169846489
 30
0.0
 11
24.21004599145303
 21
-9.796389355391484
 31
0.0
  0
LINE
  5
B69
330
CA0
100
AcDbEntity
  8
TITLEBLOCK_NOTES
  6
Continuous
 62
     3
100
AcDbLine
 10
23.0956212903296
 20
-9.796665876514035
 30
0.0
 11
24.21004599145303
 21
-9.77721353344063
 31
0.0
  0
LINE
  5
B6A
330
CA0
100
AcDbEntity
  8
TITLEBLOCK_NOTES
  6
Continuous
 62
     3
100
AcDbLine
 10
23.0956212903296
 20
-9.77749005456325
 30
0.0
 11
24.21004599145303
 21
-9.758037711489839
 31
0.0
  0
LINE
  5
B6B
330
CA0
100
AcDbEntity
  8
TITLEBLOCK_NOTES
  6
Continuous
 62
     3
100
AcDbLine
 10
23.0956212903296
 20
-9.758314232612463
 30
0.0
 11
24.21004599145303
 21
-9.738861889539055
 31
0.0
  0
LINE
  5
B6C
330
CA0
100
AcDbEntity
  8
TITLEBLOCK_NOTES
  6
Continuous
 62
     3
100
AcDbLine
 10
23.0956212903296
 20
-9.739138410661677
 30
0.0
 11
24.21004599145303
 21
-9.719686067588268
 31
0.0
  0
LINE
  5
B6D
330
CA0
100
AcDbEntity
  8
TITLEBLOCK_NOTES
  6
Continuous
 62
     3
100
AcDbLine
 10
23.0956212903296
 20
-9.719962588710888
 30
0.0
 11
24.21004599145303
 21
-9.700510245637415
 31
0.0
  0
LINE
  5
B6E
330
CA0
100
AcDbEntity
  8
TITLEBLOCK_NOTES
  6
Continuous
 62
     3
100
AcDbLine
 10
23.0956212903296
 20
-9.700786766760035
 30
0.0
 11
24.21004599145303
 21
-9.68133442368663
 31
0.0
  0
LINE
  5
B6F
330
CA0
100
AcDbEntity
  8
TITLEBLOCK_NOTES
  6
Continuous
 62
     3
100
AcDbLine
 10
23.0956212903296
 20
-9.68161094480925
 30
0.0
 11
24.21004599145303
 21
-9.662158601735843
 31
0.0
  0
LINE
  5
B70
330
CA0
100
AcDbEntity
  8
TITLEBLOCK_NOTES
  6
Continuous
 62
     3
100
AcDbLine
 10
23.0956212903296
 20
-9.662435170790706
 30
0.0
 11
24.21004599145303
 21
-9.642982779785056
 31
0.0
  0
LINE
  5
B71
330
CA0
100
AcDbEntity
  8
TITLEBLOCK_NOTES
  6
Continuous
 62
     3
100
AcDbLine
 10
23.0956212903296
 20
-9.537984320718685
 30
0.0
 11
24.21004599145303
 21
-9.537984320718685
 31
0.0
  0
LINE
  5
B72
330
CA0
100
AcDbEntity
  8
TITLEBLOCK_NOTES
  6
Continuous
 62
     3
100
AcDbLine
 10
23.0956212903296
 20
-9.63233913714275
 30
0.0
 11
24.21004599145303
 21
-9.63233913714275
 31
0.0
  0
LINE
  5
B73
330
CA0
100
AcDbEntity
  8
TITLEBLOCK_NOTES
  6
Continuous
 62
     3
100
AcDbLine
 10
23.0956212903296
 20
-10.00975840283913
 30
0.0
 11
24.21004599145303
 21
-10.00975840283913
 31
0.0
  0
LINE
  5
B74
330
CA0
100
AcDbEntity
  8
TITLEBLOCK_NOTES
  6
Continuous
 62
     3
100
AcDbLine
 10
23.0956212903296
 20
-10.14323647644826
 30
0.0
 11
24.21004599145303
 21
-10.12378413337486
 31
0.0
  0
LINE
  5
B75
330
CA0
100
AcDbEntity
  8
TITLEBLOCK_NOTES
  6
Continuous
 62
     3
100
AcDbLine
 10
23.0956212903296
 20
-10.12406065449741
 30
0.0
 11
24.21004599145303
 21
-10.104608311424
 31
0.0
  0
LINE
  5
B76
330
CA0
100
AcDbEntity
  8
TITLEBLOCK_NOTES
  6
Continuous
 62
     3
100
AcDbLine
 10
23.0956212903296
 20
-10.10411321926326
 30
0.0
 11
24.21004599145303
 21
-10.10411321926326
 31
0.0
  0
LINE
  5
B77
330
CA0
100
AcDbEntity
  8
TITLEBLOCK_NOTES
  6
Continuous
 62
     3
100
AcDbLine
 10
23.0956212903296
 20
-9.185286062556915
 30
0.0
 11
24.21004599145303
 21
-9.185286062556915
 31
0.0
  0
LINE
  5
B78
330
CA0
100
AcDbEntity
  8
TITLEBLOCK_NOTES
  6
Continuous
 62
     3
100
AcDbLine
 10
23.0956212903296
 20
-9.161319939952059
 30
0.0
 11
24.21004599145303
 21
-9.161319939952059
 31
0.0
  0
LINE
  5
B79
330
CA0
100
AcDbEntity
  8
TITLEBLOCK_NOTES
  6
Continuous
 62
     3
100
AcDbLine
 10
23.0956212903296
 20
-9.137353817347271
 30
0.0
 11
24.21004599145303
 21
-9.137353817347271
 31
0.0
  0
LINE
  5
B7A
330
CA0
100
AcDbEntity
  8
TITLEBLOCK_NOTES
  6
Continuous
 62
     3
100
AcDbLine
 10
23.0956212903296
 20
-9.33219331330639
 30
0.0
 11
24.21004599145303
 21
-9.312740922300669
 31
0.0
  0
LINE
  5
B7B
330
CA0
100
AcDbEntity
  8
TITLEBLOCK_NOTES
  6
Continuous
 62
     3
100
AcDbLine
 10
23.0956212903296
 20
-9.113387694742483
 30
0.0
 11
24.21004599145303
 21
-9.113387694742483
 31
0.0
  0
LINE
  5
B7C
330
CA0
100
AcDbEntity
  8
TITLEBLOCK_NOTES
  6
Continuous
 62
     3
100
AcDbLine
 10
23.0956212903296
 20
-9.207742511166614
 30
0.0
 11
24.21004599145303
 21
-9.207742511166614
 31
0.0
  0
LINE
  5
B7D
330
CA0
100
AcDbEntity
  8
TITLEBLOCK_NOTES
  6
Continuous
 62
     3
100
AcDbLine
 10
23.0956212903296
 20
-9.302097327590674
 30
0.0
 11
24.21004599145303
 21
-9.302097327590674
 31
0.0
  0
LINE
  5
B7E
330
CA0
100
AcDbEntity
  8
TITLEBLOCK_NOTES
  6
Continuous
 62
     3
100
AcDbLine
 10
23.0956212903296
 20
-9.466424019029719
 30
0.0
 11
24.21004599145303
 21
-9.446971675956307
 31
0.0
  0
LINE
  5
B7F
330
CA0
100
AcDbEntity
  8
TITLEBLOCK_NOTES
  6
Continuous
 62
     3
100
AcDbLine
 10
23.0956212903296
 20
-9.447248197078934
 30
0.0
 11
24.21004599145303
 21
-9.427795854005523
 31
0.0
  0
LINE
  5
B80
330
CA0
100
AcDbEntity
  8
TITLEBLOCK_NOTES
  6
Continuous
 62
     3
100
AcDbLine
 10
23.0956212903296
 20
-9.428072375128147
 30
0.0
 11
24.21004599145303
 21
-9.408620032054736
 31
0.0
  0
LINE
  5
B81
330
CA0
100
AcDbEntity
  8
TITLEBLOCK_NOTES
  6
Continuous
 62
     3
100
AcDbLine
 10
23.0956212903296
 20
-9.40889655317736
 30
0.0
 11
24.21004599145303
 21
-9.389444210103885
 31
0.0
  0
LINE
  5
B82
330
CA0
100
AcDbEntity
  8
TITLEBLOCK_NOTES
  6
Continuous
 62
     3
100
AcDbLine
 10
23.0956212903296
 20
-9.389720779158754
 30
0.0
 11
24.21004599145303
 21
-9.370268388153094
 31
0.0
  0
LINE
  5
B83
330
CA0
100
AcDbEntity
  8
TITLEBLOCK_NOTES
  6
Continuous
 62
     3
100
AcDbLine
 10
23.0956212903296
 20
-9.370544957207965
 30
0.0
 11
24.21004599145303
 21
-9.351092566202307
 31
0.0
  0
LINE
  5
B84
330
CA0
100
AcDbEntity
  8
TITLEBLOCK_NOTES
  6
Continuous
 62
     3
100
AcDbLine
 10
23.0956212903296
 20
-9.351369135257181
 30
0.0
 11
24.21004599145303
 21
-9.33191674425152
 31
0.0
  0
LINE
  5
B85
330
CA0
100
AcDbEntity
  8
TITLEBLOCK_NOTES
  6
Continuous
 62
     3
100
AcDbLine
 10
23.0956212903296
 20
-9.643259348839853
 30
0.0
 11
23.72123779596225
 21
-9.63233913714275
 31
0.0
  0
LINE
  5
B86
330
CA0
100
AcDbEntity
  8
TITLEBLOCK_NOTES
  6
Continuous
 62
     3
100
AcDbLine
 10
23.0956212903296
 20
-9.313017491355536
 30
0.0
 11
23.72123779596225
 21
-9.302097327590674
 31
0.0
  0
LINE
  5
B87
330
CA0
100
AcDbEntity
  8
TITLEBLOCK_NOTES
  6
Continuous
 62
     3
100
AcDbLine
 10
23.0956212903296
 20
-10.2774671821716
 30
0.0
 11
24.21004599145303
 21
-10.25801483909819
 31
0.0
  0
LINE
  5
B88
330
CA0
100
AcDbEntity
  8
TITLEBLOCK_NOTES
  6
Continuous
 62
     3
100
AcDbLine
 10
23.0956212903296
 20
-10.25829140815305
 30
0.0
 11
24.21004599145303
 21
-10.2388390171474
 31
0.0
  0
LINE
  5
B89
330
CA0
100
AcDbEntity
  8
TITLEBLOCK_NOTES
  6
Continuous
 62
     3
100
AcDbLine
 10
23.0956212903296
 20
-10.23911558620226
 30
0.0
 11
24.21004599145303
 21
-10.21966319519654
 31
0.0
  0
LINE
  5
B8A
330
CA0
100
AcDbEntity
  8
TITLEBLOCK_NOTES
  6
Continuous
 62
     3
100
AcDbLine
 10
23.0956212903296
 20
-10.21993976425141
 30
0.0
 11
24.21004599145303
 21
-10.20048737324576
 31
0.0
  0
LINE
  5
B8B
330
CA0
100
AcDbEntity
  8
TITLEBLOCK_NOTES
  6
Continuous
 62
     3
100
AcDbLine
 10
23.0956212903296
 20
-10.20076394230063
 30
0.0
 11
24.21004599145303
 21
-10.18131155129497
 31
0.0
  0
LINE
  5
B8C
330
CA0
100
AcDbEntity
  8
TITLEBLOCK_NOTES
  6
Continuous
 62
     3
100
AcDbLine
 10
23.0956212903296
 20
-10.18158812034984
 30
0.0
 11
24.21004599145303
 21
-10.16213577727643
 31
0.0
  0
LINE
  5
B8D
330
CA0
100
AcDbEntity
  8
TITLEBLOCK_NOTES
  6
Continuous
 62
     3
100
AcDbLine
 10
24.00633394931209
 20
-10.28074541221821
 30
0.0
 11
23.0956212903296
 21
-10.28074541221821
 31
0.0
  0
LINE
  5
B8E
330
CA0
100
AcDbEntity
  8
TITLEBLOCK_NOTES
  6
Continuous
 62
     3
100
AcDbLine
 10
23.98236782670737
 20
-10.30471153482307
 30
0.0
 11
23.07165516772489
 21
-10.30471153482307
 31
0.0
  0
LINE
  5
B8F
330
CA0
100
AcDbEntity
  8
TITLEBLOCK_NOTES
  6
Continuous
 62
     3
100
AcDbLine
 10
23.04768904512002
 20
-10.32867765742786
 30
0.0
 11
23.95840170410253
 21
-10.32867765742786
 31
0.0
  0
LINE
  5
B90
330
CA0
100
AcDbEntity
  8
TITLEBLOCK_NOTES
  6
Continuous
 62
     3
100
AcDbLine
 10
23.0956212903296
 20
-10.16241229839905
 30
0.0
 11
24.21004599145303
 21
-10.14295995532564
 31
0.0
  0
LINE
  5
B91
330
CA0
100
AcDbEntity
  8
TITLEBLOCK_NOTES
  6
Continuous
 62
     3
100
AcDbLine
 10
22.64026496083836
 20
-10.73610174170952
 30
0.0
 11
24.00633394931209
 21
-10.73610174170952
 31
0.0
  0
LINE
  5
B92
330
CA0
100
AcDbEntity
  8
TITLEBLOCK_NOTES
  6
Continuous
 62
     3
100
AcDbLine
 10
23.98236782670737
 20
-10.71213561910473
 30
0.0
 11
22.66423108344309
 21
-10.71213561910473
 31
0.0
  0
LINE
  5
B93
330
CA0
100
AcDbEntity
  8
TITLEBLOCK_NOTES
  6
Continuous
 62
     3
100
AcDbLine
 10
22.68819720604794
 20
-10.68816949649988
 30
0.0
 11
23.95840170410253
 21
-10.68816949649988
 31
0.0
  0
LINE
  5
B94
330
CA0
100
AcDbEntity
  8
TITLEBLOCK_NOTES
  6
Continuous
 62
     3
100
AcDbLine
 10
18.22832822122027
 20
-12.47713677563766
 30
0.0
 11
18.22832822122027
 21
-3.346044063207108
 31
0.0
  0
TEXT
  5
B95
330
CA0
100
AcDbEntity
  8
TITLEBLOCK_NOTES
  6
Continuous
 62
     3
100
AcDbText
 10
18.44392726844406
 20
-4.180800205525534
 30
0.0
 40
0.455356329491287
  1
PART NO.
 41
1.149268229999999
100
AcDbText
  0
TEXT
  5
B96
330
CA0
100
AcDbEntity
  8
TITLEBLOCK_NOTES
 62
     3
100
AcDbText
 10
3.282982367758676
 20
-11.07708856615025
 30
0.0
 40
0.4793224520960919
  1
.X= +/- 1/32
100
AcDbText
  0
TEXT
  5
B97
330
CA0
100
AcDbEntity
  8
TITLEBLOCK_NOTES
  6
Continuous
 62
     3
100
AcDbText
 10
1.572767637649789
 20
-5.358911228959023
 30
0.0
 40
0.455356329491287
  1
DESCRIPTION
 41
1.149268229999999
100
AcDbText
  0
LINE
  5
B98
330
CA0
100
AcDbEntity
  8
TITLEBLOCK_NOTES
100
AcDbLine
 10
1.345572820763855
 20
-3.346044063207108
 30
0.0
 11
1.345572820763855
 21
-12.48306363066044
 31
0.0
  0
TEXT
  5
B99
330
CA0
100
AcDbEntity
  8
TITLEBLOCK_NOTES
  6
Continuous
 62
     3
100
AcDbText
 10
1.611161411870462
 20
-4.180800205525534
 30
0.0
 40
0.455356329491287
  1
CUSTOMER
 41
1.149268229999999
100
AcDbText
  0
TEXT
  5
B9A
330
CA0
100
AcDbEntity
  8
TITLEBLOCK_NOTES
 62
     3
100
AcDbText
 10
3.282982367758676
 20
-9.774699593838253
 30
0.0
 40
0.4793224520960919
  1
.XX= +/- .015  FRAC.= +/- 1/16
100
AcDbText
  0
LINE
  5
B9B
330
CA0
100
AcDbEntity
  8
TITLEBLOCK_NOTES
  6
Continuous
 62
     3
100
AcDbLine
 10
24.21985887242135
 20
-5.814554691502041
 30
0.0
 11
1.345572820763855
 21
-5.814554691502041
 31
0.0
  0
LINE
  5
B9C
330
CA0
100
AcDbEntity
  8
TITLEBLOCK_NOTES
 62
     3
100
AcDbLine
 10
18.17833867733745
 20
-4.539832392047728
 30
0.0
 11
1.345572820763855
 21
-4.539832392047728
 31
0.0
  0
LINE
  5
B9D
330
CA0
100
AcDbEntity
  8
TITLEBLOCK_NOTES
 62
     3
100
AcDbLine
 10
18.22832822122027
 20
-12.47713677563766
 30
0.0
 11
1.345572820763855
 21
-12.48306363066044
 31
0.0
  0
TEXT
  5
B9E
330
CA0
100
AcDbEntity
  8
TITLEBLOCK_NOTES
 62
     3
100
AcDbText
 10
3.29203320118755
 20
-8.562754101337564
 30
0.0
 40
0.4793224520960919
  1
.XXX= +/- .010  ANG.=+/- 1/2 DEG
100
AcDbText
  0
TEXT
  5
B9F
330
CA0
100
AcDbEntity
  8
TITLEBLOCK_NOTES
 62
     3
100
AcDbText
 10
2.453229409951695
 20
-6.999145435251723
 30
0.0
 40
0.455356329491287
  1
TOLERANCES UNLESS OTHERWISE NOTED
100
AcDbText
  0
TEXT
  5
BA0
330
CA0
100
AcDbEntity
  8
TITLEBLOCK_NOTES
  6
Continuous
 62
     3
100
AcDbText
 10
9.736069163861728
 20
-5.358911228959023
 30
0.0
 40
0.455356329491287
  1
DL TEMPLATE
 41
1.149268229999999
100
AcDbText
  0
LINE
  5
BA2
330
CA0
100
AcDbEntity
  8
TITLEBLOCK_NOTES
  6
Continuous
 62
     3
100
AcDbLine
 10
18.22832822122027
 20
-7.084759189556687
 30
0.0
 11
40.99614469578461
 21
-7.084759189556687
 31
0.0
  0
LINE
  5
BA3
330
CA0
100
AcDbEntity
  8
TITLEBLOCK_NOTES
  6
Continuous
 62
     3
100
AcDbLine
 10
40.99614469578461
 20
-4.544350193447391
 30
0.0
 11
18.22832822122027
 21
-4.544350193447391
 31
0.0
  0
LINE
  5
BA4
330
CA0
100
AcDbEntity
  8
TITLEBLOCK_NOTES
 62
     3
100
AcDbLine
 10
18.22832822122027
 20
-12.47713677563766
 30
0.0
 11
40.99614469578461
 21
-12.47713677563766
 31
0.0
  0
LINE
  5
BA5
330
CA0
100
AcDbEntity
  8
TITLEBLOCK_NOTES
  6
Continuous
 62
     3
100
AcDbLine
 10
1.345572820763855
 20
-3.346044063207108
 30
0.0
 11
40.99614469578461
 21
-3.346044063207176
 31
0.0
  0
TEXT
  5
BA6
330
CA0
100
AcDbEntity
  8
TITLEBLOCK_NOTES
  6
Continuous
 62
     3
100
AcDbText
 10
33.20292340560192
 20
-11.63106020830105
 30
0.0
 40
0.3067663693414986
  1
FAX (905) 951-0672
 41
1.282051279999999
100
AcDbText
  0
TEXT
  5
BA7
330
CA0
100
AcDbEntity
  8
TITLEBLOCK_NOTES
  6
Continuous
 62
     3
100
AcDbText
 10
34.39568388123853
 20
-9.807369402511488
 30
0.0
 40
0.3834579616768732
  1
 Bolton, Ontario
 41
0.7000000000000001
100
AcDbText
  0
TEXT
  5
BA8
330
CA0
100
AcDbEntity
  8
TITLEBLOCK_NOTES
  6
Continuous
 62
     3
100
AcDbText
 10
31.95817241958879
 20
-10.44882783757814
 30
0.0
 40
0.3834579616768732
  1
          Canada L7E 5R1
 41
0.7000000000000001
100
AcDbText
  0
TEXT
  5
BA9
330
CA0
100
AcDbEntity
  8
TITLEBLOCK_NOTES
  6
Continuous
 62
     3
100
AcDbText
 10
32.67610612014386
 20
-8.488018426627228
 30
0.0
 40
0.7189836781441376
  1
MULTICYL  Inc.
 41
0.85470085
100
AcDbText
  0
TEXT
  5
BAA
330
CA0
100
AcDbEntity
  8
TITLEBLOCK_NOTES
  6
Continuous
 62
     3
100
AcDbText
 10
33.30047827082099
 20
-9.21389951122804
 30
0.0
 40
0.3834579616768732
  1
640 Hardwick Road, Unit 5
 41
0.7000000000000001
100
AcDbText
  0
TEXT
  5
BAB
330
CA0
100
AcDbEntity
  8
TITLEBLOCK_NOTES
  6
Continuous
 62
     3
100
AcDbText
 10
34.04065142118034
 20
-11.09195095199927
 30
0.0
 40
0.3067663693414986
  1
(905) 951-0670 
 41
1.282051279999999
100
AcDbText
  0
LWPOLYLINE
  5
BAC
330
CA0
100
AcDbEntity
  8
TITLEBLOCK_NOTES
100
AcDbPolyline
 90
        4
 70
     1
 43
0.0
 10
-11.05136514188566
 20
54.87846419075919
 10
-11.0513651418857
 20
-12.47713677563767
 10
40.99614469578463
 20
-12.47713677563767
 10
40.99614469578463
 20
54.87846419075906
  0
TEXT
  5
D03
330
CA0
100
AcDbEntity
  8
0
100
AcDbText
 10
19.709395526064
 20
0.6831429043666759
 30
0.0
 40
0.75
  1
25/32 (MOUNTING HOLES)
100
AcDbText
  0
LINE
  5
D04
330
CA0
100
AcDbEntity
  8
0
100
AcDbLine
 10
6.970963299808943
 20
3.329980354229245
 30
0.0
 11
6.970963299808943
 21
-0.1451399587203923
 31
0.0
  0
LINE
  5
D05
330
CA0
100
AcDbEntity
  8
0
100
AcDbLine
 10
16.97096329980894
 20
3.329980354229245
 30
0.0
 11
16.97096329980894
 21
-0.1451399587203923
 31
0.0
  0
LINE
  5
D06
330
CA0
100
AcDbEntity
  8
0
100
AcDbLine
 10
7.720963299808942
 20
0.6048600412796077
 30
0.0
 11
10.26968835396553
 21
0.6048600412796078
 31
0.0
  0
LINE
  5
D07
330
CA0
100
AcDbEntity
  8
0
100
AcDbLine
 10
16.22096329980894
 20
0.6048600412796077
 30
0.0
 11
13.5300278745492
 21
0.6048600412796077
 31
0.0
  0
SOLID
  5
D08
330
CA0
100
AcDbEntity
  8
0
100
AcDbTrace
 10
7.720963299808942
 20
0.7298600412796077
 30
0.0
 11
7.720963299808942
 21
0.4798600412796077
 31
0.0
 12
6.970963299808943
 22
0.6048600412796077
 32
0.0
 13
6.970963299808943
 23
0.6048600412796077
 33
0.0
  0
SOLID
  5
D09
330
CA0
100
AcDbEntity
  8
0
100
AcDbTrace
 10
16.22096329980894
 20
0.7298600412796077
 30
0.0
 11
16.22096329980894
 21
0.4798600412796077
 31
0.0
 12
16.97096329980894
 22
0.6048600412796077
 32
0.0
 13
16.97096329980894
 23
0.6048600412796077
 33
0.0
  0
LINE
  5
D0B
330
CA0
100
AcDbEntity
  8
0
100
AcDbLine
 10
7.970963299808942
 20
3.633846459520011
 30
0.0
 11
7.970963299808942
 21
1.453278322762328
 31
0.0
  0
LINE
  5
D0C
330
CA0
100
AcDbEntity
  8
0
100
AcDbLine
 10
15.97096329980893
 20
3.633846459520014
 30
0.0
 11
15.97096329980893
 21
1.453278322762328
 31
0.0
  0
LINE
  5
D0D
330
CA0
100
AcDbEntity
  8
0
100
AcDbLine
 10
8.720963299808943
 20
2.203278322762328
 30
0.0
 11
10.03788146325276
 21
2.203278322762328
 31
0.0
  0
LINE
  5
D0E
330
CA0
100
AcDbEntity
  8
0
100
AcDbLine
 10
15.22096329980894
 20
2.203278322762328
 30
0.0
 11
13.32625652424764
 21
2.203278322762328
 31
0.0
  0
SOLID
  5
D0F
330
CA0
100
AcDbEntity
  8
0
100
AcDbTrace
 10
8.720963299808943
 20
2.328278322762328
 30
0.0
 11
8.720963299808943
 21
2.078278322762328
 31
0.0
 12
7.970963299808942
 22
2.203278322762328
 32
0.0
 13
7.970963299808942
 23
2.203278322762328
 33
0.0
  0
SOLID
  5
D10
330
CA0
100
AcDbEntity
  8
0
100
AcDbTrace
 10
15.22096329980894
 20
2.328278322762328
 30
0.0
 11
15.22096329980894
 21
2.078278322762328
 31
0.0
 12
15.97096329980893
 22
2.203278322762328
 32
0.0
 13
15.97096329980893
 23
2.203278322762328
 33
0.0
  0
LINE
  5
D12
330
CA0
100
AcDbEntity
  8
0
100
AcDbLine
 10
11.00952547204279
 20
5.879980354229245
 30
0.0
 11
2.672053020472135
 21
5.879980354229248
 31
0.0
  0
LINE
  5
D13
330
CA0
100
AcDbEntity
  8
0
100
AcDbLine
 10
11.00952547204279
 20
7.379980354229244
 30
0.0
 11
2.672053020472135
 21
7.379980354229249
 31
0.0
  0
LINE
  5
D14
330
CA0
100
AcDbEntity
  8
0
100
AcDbLine
 10
3.422053020472135
 20
5.129980354229248
 30
0.0
 11
3.422053020472134
 21
4.379980354229248
 31
0.0
  0
LINE
  5
D15
330
CA0
100
AcDbEntity
  8
0
100
AcDbLine
 10
3.422053020472135
 20
8.12998035422925
 30
0.0
 11
3.422053020472135
 21
8.87998035422925
 31
0.0
  0
SOLID
  5
D16
330
CA0
100
AcDbEntity
  8
0
100
AcDbTrace
 10
3.297053020472135
 20
5.129980354229248
 30
0.0
 11
3.547053020472135
 21
5.129980354229248
 31
0.0
 12
3.422053020472135
 22
5.879980354229248
 32
0.0
 13
3.422053020472135
 23
5.879980354229248
 33
0.0
  0
SOLID
  5
D17
330
CA0
100
AcDbEntity
  8
0
100
AcDbTrace
 10
3.297053020472135
 20
8.12998035422925
 30
0.0
 11
3.547053020472135
 21
8.12998035422925
 31
0.0
 12
3.422053020472135
 22
7.379980354229249
 32
0.0
 13
3.422053020472135
 23
7.379980354229249
 33
0.0
  0
TEXT
  5
D19
330
CA0
100
AcDbEntity
  8
0
100
AcDbText
 10
18.11041005565969
 20
11.84821391644708
 30
0.0
 40
0.75
  1
1 1/4-12 (FEMALE THREADS)
100
AcDbText
  0
LINE
  5
D1A
330
CA0
100
AcDbEntity
  8
0
100
AcDbLine
 10
9.970963299808943
 20
6.929980354229246
 30
0.0
 11
9.970963299808943
 21
12.0666482995086
 31
0.0
  0
LINE
  5
D1B
330
CA0
100
AcDbEntity
  8
0
100
AcDbLine
 10
13.97096329980894
 20
6.929980354229246
 30
0.0
 11
13.97096329980894
 21
12.0666482995086
 31
0.0
  0
SOLID
  5
D1E
330
CA0
100
AcDbEntity
  8
0
100
AcDbTrace
 10
10.72096329980894
 20
11.4416482995086
 30
0.0
 11
10.72096329980894
 21
11.1916482995086
 31
0.0
 12
9.970963299808943
 22
11.3166482995086
 32
0.0
 13
9.970963299808943
 23
11.3166482995086
 33
0.0
  0
SOLID
  5
D1F
330
CA0
100
AcDbEntity
  8
0
100
AcDbTrace
 10
13.22096329980894
 20
11.4416482995086
 30
0.0
 11
13.22096329980894
 21
11.1916482995086
 31
0.0
 12
13.97096329980894
 22
11.3166482995086
 32
0.0
 13
13.97096329980894
 23
11.3166482995086
 33
0.0
  0
LINE
  5
D21
330
CA0
100
AcDbEntity
  8
0
100
AcDbLine
 10
10.97096329980894
 20
15.63883778511746
 30
0.0
 11
10.97096329980894
 21
12.59513769107795
 31
0.0
  0
LINE
  5
D22
330
CA0
100
AcDbEntity
  8
0
100
AcDbLine
 10
12.97096329980894
 20
15.63883778511746
 30
0.0
 11
12.97096329980894
 21
12.59513769107795
 31
0.0
  0
LINE
  5
D23
330
CA0
100
AcDbEntity
  8
0
100
AcDbLine
 10
10.22096329980894
 20
13.34513769107795
 30
0.0
 11
9.470963299808943
 21
13.34513769107795
 31
0.0
  0
LINE
  5
D24
330
CA0
100
AcDbEntity
  8
0
100
AcDbLine
 10
13.72096329980894
 20
13.34513769107795
 30
0.0
 11
14.47096329980894
 21
13.34513769107795
 31
0.0
  0
SOLID
  5
D25
330
CA0
100
AcDbEntity
  8
0
100
AcDbTrace
 10
10.22096329980894
 20
13.47013769107795
 30
0.0
 11
10.22096329980894
 21
13.22013769107795
 31
0.0
 12
10.97096329980894
 22
13.34513769107795
 32
0.0
 13
10.97096329980894
 23
13.34513769107795
 33
0.0
  0
SOLID
  5
D26
330
CA0
100
AcDbEntity
  8
0
100
AcDbTrace
 10
13.72096329980894
 20
13.47013769107795
 30
0.0
 11
13.72096329980894
 21
13.22013769107795
 31
0.0
 12
12.97096329980894
 22
13.34513769107795
 32
0.0
 13
12.97096329980894
 23
13.34513769107795
 33
0.0
  0
LINE
  5
D28
330
CA0
100
AcDbEntity
  8
0
100
AcDbLine
 10
10.67096329980894
 20
15.93883778511746
 30
0.0
 11
2.952414092627694
 21
15.93883778511746
 31
0.0
  0
LINE
  5
D29
330
CA0
100
AcDbEntity
  8
0
100
AcDbLine
 10
6.670963299808944
 20
18.49883778511745
 30
0.0
 11
2.952414092627694
 21
18.49883778511745
 31
0.0
  0
LINE
  5
D2A
330
CA0
100
AcDbEntity
  8
0
100
AcDbLine
 10
3.702414092627694
 20
15.18883778511746
 30
0.0
 11
3.702414092627692
 21
14.43883778511746
 31
0.0
  0
LINE
  5
D2B
330
CA0
100
AcDbEntity
  8
0
100
AcDbLine
 10
3.702414092627694
 20
19.24883778511745
 30
0.0
 11
3.702414092627694
 21
19.99883778511745
 31
0.0
  0
SOLID
  5
D2C
330
CA0
100
AcDbEntity
  8
0
100
AcDbTrace
 10
3.577414092627694
 20
15.18883778511746
 30
0.0
 11
3.827414092627694
 21
15.18883778511746
 31
0.0
 12
3.702414092627694
 22
15.93883778511746
 32
0.0
 13
3.702414092627694
 23
15.93883778511746
 33
0.0
  0
SOLID
  5
D2D
330
CA0
100
AcDbEntity
  8
0
100
AcDbTrace
 10
3.577414092627694
 20
19.24883778511745
 30
0.0
 11
3.827414092627694
 21
19.24883778511745
 31
0.0
 12
3.702414092627694
 22
18.49883778511745
 32
0.0
 13
3.702414092627694
 23
18.49883778511745
 33
0.0
  0
TEXT
  5
D2F
330
CA0
100
AcDbEntity
  8
0
100
AcDbText
 10
1.40603965728151
 20
24.19483738982985
 30
0.0
 40
0.75
  1
1/2 NPT
100
AcDbText
  0
LINE
  5
D30
330
CA0
100
AcDbEntity
  8
0
100
AcDbLine
 10
13.27096329980894
 20
15.93883778511746
 30
0.0
 11
26.17261723862836
 21
15.93883778511746
 31
0.0
  0
LINE
  5
D31
330
CA0
100
AcDbEntity
  8
0
100
AcDbLine
 10
15.52096329980894
 20
50.93883778511746
 30
0.0
 11
26.17261723862837
 21
50.93883778511745
 31
0.0
  0
LINE
  5
D32
330
CA0
100
AcDbEntity
  8
0
100
AcDbLine
 10
25.42261723862836
 20
16.68883778511746
 30
0.0
 11
25.42261723862837
 21
33.92371597620491
 31
0.0
  0
LINE
  5
D33
330
CA0
100
AcDbEntity
  8
0
100
AcDbLine
 10
25.42261723862837
 20
50.18883778511746
 30
0.0
 11
25.42261723862837
 21
35.3937159762049
 31
0.0
  0
SOLID
  5
D34
330
CA0
100
AcDbEntity
  8
0
100
AcDbTrace
 10
25.29761723862836
 20
16.68883778511746
 30
0.0
 11
25.54761723862836
 21
16.68883778511746
 31
0.0
 12
25.42261723862836
 22
15.93883778511746
 32
0.0
 13
25.42261723862836
 23
15.93883778511746
 33
0.0
  0
SOLID
  5
D35
330
CA0
100
AcDbEntity
  8
0
100
AcDbTrace
 10
25.29761723862837
 20
50.18883778511746
 30
0.0
 11
25.54761723862837
 21
50.18883778511746
 31
0.0
 12
25.42261723862837
 22
50.93883778511745
 32
0.0
 13
25.42261723862837
 23
50.93883778511745
 33
0.0
  0
LINE
  5
D37
330
CA0
100
AcDbEntity
  8
0
100
AcDbLine
 10
14.27096329980894
 20
17.74883778511746
 30
0.0
 11
23.76502769323155
 21
17.74883778511746
 31
0.0
  0
LINE
  5
D38
330
CA0
100
AcDbEntity
  8
0
100
AcDbLine
 10
17.27096329980893
 20
18.49883778511745
 30
0.0
 11
23.76502769323155
 21
18.49883778511745
 31
0.0
  0
LINE
  5
D39
330
CA0
100
AcDbEntity
  8
0
100
AcDbLine
 10
23.01502769323155
 20
16.99883778511746
 30
0.0
 11
23.01502769323155
 21
16.24883778511746
 31
0.0
  0
LINE
  5
D3A
330
CA0
100
AcDbEntity
  8
0
100
AcDbLine
 10
23.01502769323155
 20
19.24883778511745
 30
0.0
 11
23.01502769323155
 21
20.03652681123957
 31
0.0
  0
SOLID
  5
D3C
330
CA0
100
AcDbEntity
  8
0
100
AcDbTrace
 10
22.89002769323155
 20
16.99883778511746
 30
0.0
 11
23.14002769323155
 21
16.99883778511746
 31
0.0
 12
23.01502769323155
 22
17.74883778511746
 32
0.0
 13
23.01502769323155
 23
17.74883778511746
 33
0.0
  0
SOLID
  5
D3D
330
CA0
100
AcDbEntity
  8
0
100
AcDbTrace
 10
22.89002769323155
 20
19.24883778511745
 30
0.0
 11
23.14002769323155
 21
19.24883778511745
 31
0.0
 12
23.01502769323155
 22
18.49883778511745
 32
0.0
 13
23.01502769323155
 23
18.49883778511745
 33
0.0
  0
LINE
  5
D3F
330
CA0
100
AcDbEntity
  8
0
100
AcDbLine
 10
17.27096329980893
 20
20.49883778511745
 30
0.0
 11
20.25012405788653
 21
20.49883778511745
 31
0.0
  0
LINE
  5
D40
330
CA0
100
AcDbEntity
  8
0
100
AcDbLine
 10
17.27096329980893
 20
18.49883778511745
 30
0.0
 11
20.25012405788653
 21
18.49883778511745
 31
0.0
  0
LINE
  5
D41
330
CA0
100
AcDbEntity
  8
0
100
AcDbLine
 10
19.50012405788653
 20
21.24883778511745
 30
0.0
 11
19.50012405788653
 21
21.99883778511745
 31
0.0
  0
LINE
  5
D42
330
CA0
100
AcDbEntity
  8
0
100
AcDbLine
 10
19.50012405788653
 20
17.74883778511746
 30
0.0
 11
19.50012405788653
 21
16.99883778511746
 31
0.0
  0
SOLID
  5
D43
330
CA0
100
AcDbEntity
  8
0
100
AcDbTrace
 10
19.37512405788653
 20
21.24883778511745
 30
0.0
 11
19.62512405788652
 21
21.24883778511745
 31
0.0
 12
19.50012405788653
 22
20.49883778511745
 32
0.0
 13
19.50012405788653
 23
20.49883778511745
 33
0.0
  0
SOLID
  5
D44
330
CA0
100
AcDbEntity
  8
0
100
AcDbTrace
 10
19.37512405788653
 20
17.74883778511746
 30
0.0
 11
19.62512405788652
 21
17.74883778511746
 31
0.0
 12
19.50012405788653
 22
18.49883778511745
 32
0.0
 13
19.50012405788653
 23
18.49883778511745
 33
0.0
  0
LINE
  5
D46
330
CA0
100
AcDbEntity
  8
0
100
AcDbLine
 10
17.27096329980893
 20
3.629980354229246
 30
0.0
 11
21.75980623934285
 21
3.629980354229243
 31
0.0
  0
LINE
  5
D47
330
CA0
100
AcDbEntity
  8
0
100
AcDbLine
 10
17.27096329980893
 20
9.629980354229246
 30
0.0
 11
21.75980623934286
 21
9.629980354229244
 31
0.0
  0
LINE
  5
D48
330
CA0
100
AcDbEntity
  8
0
100
AcDbLine
 10
21.00980623934285
 20
4.379980354229244
 30
0.0
 11
21.00980623934285
 21
5.929535314087624
 31
0.0
  0
LINE
  5
D49
330
CA0
100
AcDbEntity
  8
0
100
AcDbLine
 10
21.00980623934285
 20
8.879980354229244
 30
0.0
 11
21.00980623934285
 21
7.399535314087625
 31
0.0
  0
SOLID
  5
D4A
330
CA0
100
AcDbEntity
  8
0
100
AcDbTrace
 10
20.88480623934285
 20
4.379980354229244
 30
0.0
 11
21.13480623934285
 21
4.379980354229244
 31
0.0
 12
21.00980623934285
 22
3.629980354229243
 32
0.0
 13
21.00980623934285
 23
3.629980354229243
 33
0.0
  0
SOLID
  5
D4B
330
CA0
100
AcDbEntity
  8
0
100
AcDbTrace
 10
20.88480623934286
 20
8.879980354229244
 30
0.0
 11
21.13480623934286
 21
8.879980354229244
 31
0.0
 12
21.00980623934285
 22
9.629980354229244
 32
0.0
 13
21.00980623934285
 23
9.629980354229244
 33
0.0
  0
LINE
  5
D4D
330
CA0
100
AcDbEntity
  8
0
100
AcDbLine
 10
16.96709719451817
 20
4.629980354229245
 30
0.0
 11
19.37326090943759
 21
4.629980354229244
 31
0.0
  0
LINE
  5
D4E
330
CA0
100
AcDbEntity
  8
0
100
AcDbLine
 10
16.96709719451817
 20
8.629980354229246
 30
0.0
 11
19.37326090943759
 21
8.629980354229246
 31
0.0
  0
LINE
  5
D4F
330
CA0
100
AcDbEntity
  8
0
100
AcDbLine
 10
18.62326090943759
 20
5.379980354229244
 30
0.0
 11
18.62326090943759
 21
5.881821397490464
 31
0.0
  0
LINE
  5
D50
330
CA0
100
AcDbEntity
  8
0
100
AcDbLine
 10
18.62326090943759
 20
7.879980354229244
 30
0.0
 11
18.62326090943759
 21
7.351821397490463
 31
0.0
  0
SOLID
  5
D51
330
CA0
100
AcDbEntity
  8
0
100
AcDbTrace
 10
18.49826090943759
 20
5.379980354229244
 30
0.0
 11
18.74826090943759
 21
5.379980354229244
 31
0.0
 12
18.62326090943759
 22
4.629980354229244
 32
0.0
 13
18.62326090943759
 23
4.629980354229244
 33
0.0
  0
SOLID
  5
D52
330
CA0
100
AcDbEntity
  8
0
100
AcDbTrace
 10
18.49826090943759
 20
7.879980354229244
 30
0.0
 11
18.74826090943759
 21
7.879980354229244
 31
0.0
 12
18.62326090943759
 22
8.629980354229246
 32
0.0
 13
18.62326090943759
 23
8.629980354229246
 33
0.0
  0
TEXT
  5
D54
330
CA0
100
AcDbEntity
  8
0
100
AcDbText
 10
18.23396413433961
 20
46.50598551791531
 30
0.0
 40
0.75
  1
1/2 NPT
100
AcDbText
  0
TEXT
  5
D55
330
CA0
100
AcDbEntity
  8
0
 62
     0
100
AcDbText
 10
24.24214040702512
 20
34.2837159762049
 30
0.0
 40
0.75
  1
49.00
100
AcDbText
  0
TEXT
  5
D56
330
CA0
100
AcDbEntity
  8
0
 62
     0
100
AcDbText
 10
3.45241409262769
 20
16.87979852623671
 30
0.0
 40
0.75
  1
2.81
100
AcDbText
  0
TEXT
  5
D57
330
CA0
100
AcDbEntity
  8
0
 62
     0
100
AcDbText
 10
18.84258161781355
 20
19.12383778511745
 30
0.0
 40
0.75
  1
2.00
100
AcDbText
  0
TEXT
  5
D58
330
CA0
100
AcDbEntity
  8
0
 62
     0
100
AcDbText
 10
22.53568275457789
 20
20.53533770660518
 30
0.0
 40
0.75
  1
.62
100
AcDbText
  0
TEXT
  5
D59
330
CA0
100
AcDbEntity
  8
0
 62
     0
100
AcDbText
 10
14.77662019499621
 20
12.97013769107795
 30
0.0
 40
0.75
  1
2.00
100
AcDbText
  0
TEXT
  5
D5A
330
CA0
100
AcDbEntity
  8
0
 62
     0
100
AcDbText
 10
11.17187042529169
 20
0.1934152545753136
 30
0.0
 40
0.75
  1
9.75
100
AcDbText
  0
TEXT
  5
D5B
330
CA0
100
AcDbEntity
  8
0
 62
     0
100
AcDbText
 10
10.72817356648136
 20
1.828278322762328
 30
0.0
 40
0.75
  1
7.25
100
AcDbText
  0
TEXT
  5
D5C
330
CA0
100
AcDbEntity
  8
0
 62
     0
100
AcDbText
 10
20.75980623934285
 20
6.289535314087628
 30
0.0
 40
0.75
  1
6.50
100
AcDbText
  0
TEXT
  5
D5D
330
CA0
100
AcDbEntity
  8
0
 62
     0
100
AcDbText
 10
18.01666124180747
 20
6.241821397490467
 30
0.0
 40
0.75
  1
4.00
100
AcDbText
  0
TEXT
  5
D5E
330
CA0
100
AcDbEntity
  8
0
 62
     0
100
AcDbText
 10
10.97604101722529
 20
10.9416482995086
 30
0.0
 40
0.75
  1
4.00
100
AcDbText
  0
TEXT
  5
D5F
330
CA0
100
AcDbEntity
  8
0
 62
     0
100
AcDbText
 10
2.635636712208992
 20
6.254980354229249
 30
0.0
 40
0.75
  1
1.75
100
AcDbText
  0
ENDSEC
  0
SECTION
  2
OBJECTS
  0
DICTIONARY
  5
C8C
330
0
100
AcDbDictionary
281
     1
  3
ACAD_COLOR
350
C9B
  3
ACAD_GROUP
350
C8D
  3
ACAD_LAYOUT
350
C99
  3
ACAD_MATERIAL
350
C9A
  3
ACAD_MLINESTYLE
350
C96
  3
ACAD_PLOTSETTINGS
350
C98
  3
ACAD_PLOTSTYLENAME
350
C8E
  3
ACDBHEADERROUNDTRIPXREC
350
D6A
  3
AcDbVariableDictionary
350
CEC
  0
DICTIONARY
  5
C9B
102
{ACAD_REACTORS
330
C8C
102
}
330
C8C
100
AcDbDictionary
281
     1
  0
DICTIONARY
  5
C8D
102
{ACAD_REACTORS
330
C8C
102
}
330
C8C
100
AcDbDictionary
281
     1
  0
DICTIONARY
  5
C99
102
{ACAD_REACTORS
330
C8C
102
}
330
C8C
100
AcDbDictionary
281
     1
  3
Layout1
350
C9F
  3
Model
350
CA3
  0
DICTIONARY
  5
C9A
102
{ACAD_REACTORS
330
C8C
102
}
330
C8C
100
AcDbDictionary
281
     1
  0
DICTIONARY
  5
C96
102
{ACAD_REACTORS
330
C8C
102
}
330
C8C
100
AcDbDictionary
281
     1
  3
Standard
350
C97
  0
DICTIONARY
  5
C98
102
{ACAD_REACTORS
330
C8C
102
}
330
C8C
100
AcDbDictionary
281
     1
  0
ACDBDICTIONARYWDFLT
  5
C8E
102
{ACAD_REACTORS
330
C8C
102
}
330
C8C
100
AcDbDictionary
281
     1
  3
Normal
350
C8F
100
AcDbDictionaryWithDefault
340
C8F
  0
DICTIONARY
  5
D6A
102
{ACAD_REACTORS
330
C8C
102
}
330
C8C
100
AcDbDictionary
281
     1
  3
COLORDICT
350
D6C
  3
MATERIALDICT
350
D6B
  0
DICTIONARY
  5
CEC
102
{ACAD_REACTORS
330
C8C
102
}
330
C8C
100
AcDbDictionary
281
     1
  3
DIMASSOC
350
CED
  3
PROJECTNAME
350
CEE
  0
LAYOUT
  5
C9F
102
{ACAD_XDICTIONARY
360
D6D
102
}
102
{ACAD_REACTORS
330
C99
102
}
330
C99
100
AcDbPlotSettings
  1

  2
Epson AP-3000
  4

  6

 40
0.0
 41
0.0
 42
0.0
 43
0.0
 44
0.0
 45
0.0
 46
0.0
 47
0.0
 48
0.0
 49
0.0
140
0.0
141
0.0
142
1.0
143
1.0
 70
   688
 72
     0
 73
     0
 74
     5
  7

 75
    16
147
1.0
148
0.0
149
0.0
100
AcDbLayout
  1
Layout1
 70
     1
 71
     1
 10
0.0
 20
0.0
 11
12.0
 21
9.0
 12
0.0
 22
0.0
 32
0.0
 14
1.000000000000000E+20
 24
1.000000000000000E+20
 34
1.000000000000000E+20
 15
-1.000000000000000E+20
 25
-1.000000000000000E+20
 35
-1.000000000000000E+20
146
0.0
 13
0.0
 23
0.0
 33
0.0
 16
1.0
 26
0.0
 36
0.0
 17
0.0
 27
1.0
 37
0.0
 76
     0
330
C9C
  0
LAYOUT
  5
CA3
102
{ACAD_XDICTIONARY
360
D6F
102
}
102
{ACAD_REACTORS
330
C99
102
}
330
C99
100
AcDbPlotSettings
  1

  2
Epson AP-3000
  4

  6

 40
0.0
 41
0.0
 42
0.0
 43
0.0
 44
0.0
 45
0.0
 46
0.0
 47
0.0
 48
0.0
 49
0.0
140
0.0
141
0.0
142
1.0
143
1.0
 70
  1712
 72
     0
 73
     0
 74
     0
  7

 75
     0
147
1.0
148
0.0
149
0.0
100
AcDbLayout
  1
Model
 70
     1
 71
     0
 10
0.0
 20
0.0
 11
12.0
 21
9.0
 12
0.0
 22
0.0
 32
0.0
 14
0.0
 24
0.0
 34
0.0
 15
0.0
 25
0.0
 35
0.0
146
0.0
 13
0.0
 23
0.0
 33
0.0
 16
1.0
 26
0.0
 36
0.0
 17
0.0
 27
1.0
 37
0.0
 76
     0
330
CA0
  0
MLINESTYLE
  5
C97
102
{ACAD_REACTORS
330
C96
102
}
330
C96
100
AcDbMlineStyle
  2
STANDARD
 70
     0
  3

 62
   256
 51
90.0
 52
90.0
 71
     2
 49
0.5
 62
   256
  6
BYLAYER
 49
-0.5
 62
   256
  6
BYLAYER
  0
ACDBPLACEHOLDER
  5
C8F
102
{ACAD_REACTORS
330
C8E
102
}
330
C8E
  0
XRECORD
  5
D6C
102
{ACAD_REACTORS
330
D6A
102
}
330
D6A
100
AcDbXrecord
280
     1
340
C9B
  0
XRECORD
  5
D6B
102
{ACAD_REACTORS
330
D6A
102
}
330
D6A
100
AcDbXrecord
280
     1
340
C9A
  0
DICTIONARYVAR
  5
CED
102
{ACAD_REACTORS
330
CEC
102
}
330
CEC
100
DictionaryVariables
280
     0
  1
1
  0
DICTIONARYVAR
  5
CEE
102
{ACAD_REACTORS
330
CEC
102
}
330
CEC
100
DictionaryVariables
280
     0
  1

  0
DICTIONARY
  5
D6D
330
C9F
100
AcDbDictionary
280
     1
281
     1
  3
ACAD_XREC_ROUNDTRIP
360
D6E
  0
DICTIONARY
  5
D6F
330
CA3
100
AcDbDictionary
280
     1
281
     1
  3
ACAD_XREC_ROUNDTRIP
360
D70
  0
XRECORD
  5
D6E
102
{ACAD_REACTORS
330
D6D
102
}
330
D6D
100
AcDbXrecord
280
     1
102
SHADEPLOT
 70
     0
102
SHADEPLOTRESLEVEL
 70
     2
102
SHADEPLOTCUSTOMDPI
 70
   300
  0
XRECORD
  5
D70
102
{ACAD_REACTORS
330
D6F
102
}
330
D6F
100
AcDbXrecord
280
     1
102
SHADEPLOT
 70
     0
102
SHADEPLOTRESLEVEL
 70
     2
102
SHADEPLOTCUSTOMDPI
 70
   300
  0
ENDSEC
  0
EOF
